Acordes de Guitarra » D »Los Delinquentes » Poeta Encadenado (Tab)

Poeta Encadenado
Los Delinquentes

Letras, Notas, Punteos, Tablaturas y Acordes de Guitarra (Tabs & Chords)

  • Letra y Acordes
    C/G:332010
    B1: 223542
    D2: 554030
    
    Intro: Em-D2-Em-C/G-D2-Em
    
    Em                           D
    Y escucho la resaca en mi cabeza
    C/G                                B1
    Que me llega del cerebro hasta el oido
    Em                              D
    Se fue por mi garganta hasta mi alma
    C/G                          B1
    Se fue la realidad en un suspiro
    
    Em                           C/G                           D2
    Las lagrimas que caen por el filo de mi cara mientras escribo
    Em                              C/G                        D2
    Flota en el humo que expande mi mente callada y esconde mi vida en dos
    
    
  • Letra y Acordes
    MIm                        RE
    Y escucho la resaca en mi cabeza
    DO                                 SI
    que me llega del celebro hasta el oido
    MIm                             DO/SOL3
    se fue por mi garganta hasta mi alma
    DO/SOL                      SI
    se fue la realidad y en un suspiro
    
    MIm                        DO/SOL                     DO/SOL3
    Las lagrimas que caen por el filo de mi cara mientras escribo
    MIm                    DO/SOL                        DO/SOL3
    Flotan en el humo que expande mi mente que calla y que rompe mi vida en dos.
    
    Estribillo:
    DO/SOL  DO/SOL3  MIm
    Y no se lo que hacer
    DO/SOL  DO/SOL3  MIm
    en una de las dos me perdere
    DO/SOL            DO/SOL3
    
  • Tablatura
    Añado a la transcripción de Fran la tablatura de la intro...
    
    
    INTRO:
    
    e----------------------------------------------------------------2-
    B----------------------------------------------------------------4-
    G---4-4---4-2-0--------4-4----4----------------------------------2-
    D-2-------------4-2-1-------1---1------5-5--4-5-4-5-7-5-4---4----4-
    A----------------------------------2h3--------------------7------2-
    E----------------------------------------------------------------x-
    
    e----------------------------------------------------------0-4-3-2-
    B----------------------------------------------------------0-7-5-4-
    G------0------0-----0-4-0----------------------------------0-5-3-2-
    D--2-4----2-4---2-4-------4-2-0-2-4--6-2-0---0-2--2h0------2-7-5-4-
    A-2----------------------------------------3----------3-2--2-5-3-2-
    E----------------------------------------------------------0-x-x-x-
    
    S
  • +
    ¡Colabora con nosotros!
    Envíanos tu versión de esta canción

Letra de Poeta Encadenado
Y escucho la resaca en mi cabeza
Que me llega del cerebro hasta el oido
Se fue por mi garganta hasta mi alma
Se fue la realidad en un suspiro
Las lagrimas que caen por el filo de mi cara mientras escribo
Flota en el humo que expande mi mente callada y esconde mi vida en dos
Y no se lo que hacer
En una de las dos me perderé
Déjame ir en paz
Déjame viajar
Mi forma prohibida es libertad, es libertad, es libertad
Y he visto al diablo, hola qué tal cómo te ha ido
Me tira del pelo y me canta las canciones que escribí pa mis amigos
Yo me imagino cuando chico
Con los juguetes y la aspirina
Y alucino en mi sueño
El bicho me hizo efecto
La guitarra se me aleja y llora el viento
Y no se lo que hacer
En una de las dos me perderé
Déjame ir en paz
Déjame viajar
Mi forma prohibida es libertad, es libertad, es libertad
Poco a poco ya se fue el rumor
Y otra vez como una flor marchita
Se me pasa el efecto y todos gritan
Hasta las nubes me critican
Porque soy un poeta y vivo encadenado al arte y soy callejero
Si no te gusta mi camino y mi nariz agujereada corre y vete
Come con arañas
Y no se lo que hacer
En una de las dos me perderé
Déjame ir en paz
Déjame viajar
Mi forma prohibida es libertad
Mi forma prohibida es libertad
Mi forma prohibida es libertad

Videos de Poeta Encadenado
[ver más videos]

[ver todas las canciones]


© LaCuerda.net · Aviso Legal · Privacidad