Acordes de Guitarra » D »David Lennon & Mar Cobain » Sin Sentido (Tab)

Sin Sentido
David Lennon & Mar Cobain

Letras, Acordes y Tabs para Guitarra, Bajo y Ukulele

  •        E        Am        F         G
    
    e------0--------0---------1---------1----|
    B-----0-0------1-1-------1-1-------0-0---|
    G----1---1----2---2-----2---2-----0---0--|
    D----------------------------------------|      2 veces
    A--2--------0----------------------------|
    E---------------------1---------3--------|
    
    E,Am,F,G
    
    E                          Am
    Escribo por escibir sin sentido,
    F                  G
    mi mente divaga confusa,
    E                         Am
    tus formas atravez de las sombras,
           F                      G
    que contemplo en este cuarto vacío,
    E             Am
    
  • +
    ¡Colabora con nosotros!
    Envíanos tu versión de esta canción

Letra de Sin Sentido
Escribo por escibir sin sentido,
mi mente divaga confusa,
tus formas atravez de las sombras,
que contemplo en este cuarto vacío,
donde viajo atravez,
de las estrellas en tu ausencia.
Busco en mi alma la respuesta,
a aquello que me hace ser,
un punto en este universo,
sin estar a tu lado,
siempre con la conciencia flotando,
como el ave que se acerca al volcan,
resurgiendo asi,
de las cenizas muertas.
CORTE:
entre sombras alrrededor,
que no dejan de flotar,
sin rumbo alguno.
CORTE
Una planta verde me hace señas,
camino hacia ella,
y me hace ver la realidad en otro sentido,
pero aun sin sentido.
*-*-*-*-*-*-*-*-*-*-*-*-*-*-*-*-*-*-*-*-*-*-*-*-*-*-*-*-*-*-*-*-*-*-*-*-*-*-*-*
* *
* SI TE GUSTA LA ROLA MANDA TUS COMENTARIOS, MENTADAS, FELICITACIONES, ETC.. *
* A ESTA DIRECCION: *
* jdcr6@yahoo.com.mx *
* *
*-*-*-*-*-*-*-*-*-*-*-*-*-*-*-*-*-*-*-*-*-*-*-*-*-*-*-*-*-*-*-*-*-*-*-*-*-*-*-*




[Sin Sentido chords][Sin Sentido cifra]
© LaCuerda.net · aviso legal · privacidad · es · en · pt · contacto
DINAMICO