Acordes de Guitarra » D »David Chumaña » Tu recuerdo en un cigarrillo (Tab)

Tu recuerdo en un cigarrillo
David Chumaña

Letras, Acordes y Tabs para Guitarra, Bajo y Ukulele

  • INTRO: REm - DO - SIb - DO - REm
    
    
    (Bueno yo siempre utilizo este bajo cuando acabo las notas del intro)
    
    
             bajo
    
    e----------------------I
    B----------------------I
    G----------------------I
    D----------------------I
    A------0-------3-------I
    E----------------------I
    
    
    
    REm               DO            SIb
    Trato de entender lo que me pasa
                       DO                           REm    bajo
    
  •    REm                    SIb
    e---------------------I----------------------I
    B---6----6----6----6--I----3----3----3----3--I
    G----7----7----7----7-I-----3----3----3----3-I
    D------7---------7----I-------3---------3----I
    A-5---------5---------I--1---------1---------I
    E---------------------I----------------------I
    
    Guitarra   2
    
    e-13-------13-----12--I--10--------10--------I
    B---------------------I----------------------I
    G-14-------14-----12--I--10--------10--------I
    D---------------------I----------------------I
    A---------------------I----------------------I
    E---------------------I----------------------I
    
    
    guitarra  1
     DO                   REm
    
  •    REm            DO        SIb
    e--1---1---1---I--0----I---------------I
    B---3---3---3--I---1---I--3---3---3----I
    G----2---2---2-I----0--I---3---3---3---I
    D--0-------0---I-------I----3---3---3--I
    A--------------I--3----I--1-------1----I
    E--------------I-------I---------------I
    
    Guitarra   2
    
    e-13-------13--I--12---I--10-------10--I
    B-15-------15--I--13---I--11-------11--I
    G--------------I-------I---------------I
    D--------------I-------I---------------I
    A--------------I-------I---------------I
    E--------------I-------I---------------I
    
    
    guitarra  1
      DO                   REm                 bajo
    
  • +
    ¡Colabora con nosotros!
    Envíanos tu versión de esta canción

Letra de Tu recuerdo en un cigarrillo
(Bueno yo siempre utilizo este bajo cuando acabo las notas del intro)
bajo
Trato de entender lo que me pasa
Cuando pierdes tu mirada en un rincón y sin saber
Quiero describirte mil canciones
Con mil sueños ser dibujante y plasmarte en un papel
Como un sol callado que no habla
Con palabras pero deja en tu cabello su color
Con tus ojos claros y esa sonrisa
Entre tus labios que poco a poco conquisto a mi corazón
Y me prendo un cigarrillo y tu recuerdo me viene a buscar
Soy un poeta que te escribe por las noches y sin saber
y se conforma con el hecho de saber que existes mujer
(ahí viene el INTRO)
Trato de cantarte al oído
Cuando pasas y tu cabello desfilando cae por tu piel
Con tus ojos claros y esa sonrisa
Entre tus labios que poco a poco conquisto a mi corazón
(ahí viene CORO)
FIN.
Bueno quiero dedicar esta canción a la mujer
que más amo en el mundo Gabriela Alejandra Robayo Torres…
Más conocida como muñeka a quién amo con todas las fuerzas de mi corazón.
Ya saben cualquier duda a mi correo: llillo_014@yahoo.com
Está canción es refacil asi que hay que saber llevar los ritmos y ya!!!
Bueno eso es todo chau!!! Saludos a todos los panas que
me conocen en Ambato!!!
Atte: Daniel P. (LLiLLo_EdiEL)

Video de Tu recuerdo en un cigarrillo
[]




[Tu recuerdo en un cigarrillo chords][Tu recuerdo en un cigarrillo cifra]
© LaCuerda.net · aviso legal · privacidad · es · en · pt · contacto