Acordes de Guitarra » D »David Bisbal » Silencio (Tab)

Silencio
David Bisbal

Letras, Acordes y Tabs para Guitarra, Bajo y Ukulele

  • E|-----------------------------------------------------------|
    B|-------------------------------------------------10-8-6-5--|
    G|-----------------------------------------------------------|
    D|--4--5--7--8--12--10--7-8-7-5----4--5--7-8-12-10-----------|
    A|--4-------------------------------------4------------------|
    E|-----------------------------------------------------------|
    
    E|---------------------------------------------|
    B|---------------------------------------------|
    G|---------------------------------------------|
    D|--4--5--7--8--12--10--7-8-7-5----4-----------|
    A|--4------------------------------4-----------|
    E|---------------------------------------------|
    
    FA  SIb REm sib(x2)
    
    FA              DO
    Ya no tengo palabras,
    REm
    de todo y de nada
    
  •    REm   SIbsus9   FA   DO   SOLm  LAm  SOL  RE DOadd9
    
    e---1------1-------1----0-----3-----0----3----3---3-----
    B---3------1-------1----1-----3-----1----3----2---3-----
    G---2------3-------2----0-----3-----2----0----3---0-----
    D---0------3-------3----2-----5-----2----0----0---2-----
    A----------1-------3----3-----5-----0----2--------3-----
    E------------------1----------3----------3--------------
    
    Intro: (REm SIbsus9 FA DO) x3  y luego Sibsus9
    Verso: (Fa Do Solm Sibsus9) x2
    Puente: SIbsus9 DO LAm REm DO
            SIbsus9 DO
    Estribillo: igual que el verso
    
    ------------------------------------------------------
    Intro: (REm SIbsus9 FA DO) x3  y luego Sibsus9
    
    Verso:
    FA          DO
    
  • (G#m,B,F#,C#) X2
    
    
    
    F#             C#
    Ya no tengo palabras,
    G#m
    de todo y de nada
       B               F#
    el tiempo se las llevo
                    C#           G#m
    solo queda la noche en mi interior
             B
    y este frio d amorrr
    
    
    
           B               C#         Bbm
    oohh y esta calma que rompe el corazon,
                          Ebm    C#    B
    
  • +
    ¡Colabora con nosotros!
    Envíanos tu versión de esta canción

Letra de Silencio
Ya no tengo palabras,
de todo y de nada
el tiempo se las llevo
y este frio d amorrr
oohh y esta calma k rompe el corazon,
de esta guerra yo he sido el perdedor
y se clava mu dentro este silencio,
en el no hay mundo como el recuerdo,
del amor que tu me diste silencio,
tan grande tan vacio y tan muerto,
como quema este dolor del silencio
que llena cada espacio en mi cuerpo,
como duele este silencio de amorr
Que dificil se ha vuelto,
seguir respirando, sabiendo que ya no estas,
si pudiera encontrar una razon,
que me ayude a entender,
que no vas a volver....
Y esta herida que sangra en mi interior,
y esta espina clavada sin razon,
y el inmenso dolor de este silencio....
en el no hay mundo como el recuerdo,
del amor que tu me diste silencio,
tan grande tan vacio y tan muerto,
como quema este dolor del silencio
que llena cada espacio en mi cuerpo,
como duele este silencio de amorr
como duele este silencio
Y esta herida que sangra en mi interior,
y esta espina clavada sin razon,
y el inmenso dolor de este silencio....
(sube un tono)
en el no hay mundo como el recuerdo,
del amor que tu me diste silencio,
tan grande tan vacio y tan muerto,
como quema este dolor del silencio
que llena cada espacio en mi cuerpo,
como duele este silencio de amor...
silencio tan grande tan vacio y tan muerto
silencio
que llena cada espacio en mi cuerpo,
como duele este silencio
Es una cancion muy animada del disco de david
y espero que os guste. Se la dedico a mis Pandis
de Puerto Real, en especial a mis mejores amig@s
que ellos saben quienes son ;)
Si teneis alguna duda, mandadme un correo ;)
By ALEX




[Silencio chords][Silencio cifra]
© LaCuerda.net · aviso legal · privacidad · es · en · pt · contacto