Acordes de Guitarra » D »David Aguilar » Eco (Tab)

Eco
David Aguilar

Letras, Acordes y Tabs para Guitarra, Bajo y Ukulele

  • SOLmaj7 - DOmmaj7
    
    SOLmaj7          (SOL/SI)   DOmmaj7      SI7*
    Le tocó a saturno turno entre tu mirada hada
             MIm7      MIm/RE                 DO
    pues con telescopio copio en si lo que retrata trata
    C#m7b5       RE9      RE9/DO
    de que yo alucine cine
    SOLmaj7     (SOL/SI)        DOmmaj7        SI7*
    Nunca tu palabra labra a mi sentimiento miento
            MIm7       MIm/RE             LA/#DO
    y es que tu planeta neta siendo paraíso hizo
                          DO  RE9
    a todo el universo verso
    
           DO     DOmaj7   SOLmaj7      LA#m7b5
    Una mariposa posa sobre tu cabello bello
            DO          DOmmaj7    SOLmaj7       MIm7
    por que tu tardanza danza hace la atadura dura
              DO9       SIaum7          MIm7        MIm/RE
    
  •     E                          Am
    e|-----------2-----2-----------------------2-----2-----------|
    B|--------0-----0-----0-----------------1-----1-----1--------|
    G|-----1-----------------1-----------2-----------------2-----|
    D|--------------------------2-----2-----------------------2--|
    A|-----------------------------0-----------------------------|
    E|--0--------------------------------------------------------|
    
        E                          Am
    e|-----------2-----2-----------------------2-----2--------|
    B|--------0-----0-----0-----------------1-----1-----1-----|
    G|-----1-----------------1-----------2-----------------2--|
    D|--------------------------2-----2-----------------------|
    A|-----------------------------0--------------------------|
    E|--0-----------------------------------------------------|
    
    *Silencio
    
       Le tocóasa tu rno tu rno
    e|-------------------------|
    
  • BUENO HACE POCO ESCUCHE ESTA ROLA Y ME PARECIO MUY INGENIOSA
    ASI Q DECIDI SACARLA, LA OTRA VERSION SE ESCUCHA BIEN PERO LE
    FALTAN MUCHAS COSAS, ESTA ES MUCHO MEJOR!, COMENTARIOS
    O PETICIONES LES DEJO MI CORREO: f3rock_music@hotmail.com
    
    INTRO: (2 VECES)
    
    1|----------2--0--2-----------------2--0--2--------||E
    2|-------0-----------0-----------1-----------1-----||B
    3|----1-----------------1-----0-----------------0--||G
    4|-------------------------------------------------||d
    5|-------------------------0-----------------------||a
    6|-0-----------------------------------------------||e
    
    
    1|-0--------------2-----2-----7--5--4---4----4-----||E
    2|----4--------0-----0-----4-----------------------||B
    3|------1----2------------------------5----5-------||G
    4|-------------------------------------------------||d
    5|-------------------------------0-----------------||a
    6|------0------------0-----------------------------||e
       Le tocó a saturno turno entre tu mirada hada
    
    1|-4-----------------------------
  • +
    ¡Colabora con nosotros!
    Envíanos tu versión de esta canción

Letra de Eco
Le tocó a saturno turno entre tu mirada hada
pues con telescopio copio en si lo que retrata trata
de que yo alucine cine
Nunca tu palabra labra a mi sentimiento miento
y es que tu planeta neta siendo paraíso hizo
a todo el universo verso
Una mariposa posa sobre tu cabello bello
por que tu tardanza danza hace la atadura dura
mientras yo a cupido pido que entre mis compases pases
a dejar de hacer en este hueco eco
Le faltó al destino tino para delinearte arte
(repite)
y eran tus cristales tales luces que enredaban daban
siempre a mi pupila pila.
Haces al delirio lirio que con su blancura cura
y a esta melodía día que hace que en detalle talle
en todo mi cometa meta.
Una mariposa posa sobre tu cabello bello
por que tu tardanza danza hace una atadura dura
mientras yo a cupido pido que entre mis compases pases
a dejar de ser tan solo imaginada, nada mas
Acordes (los numeros son el traste donde pisar, de la
cuerda mas baja a la mas aguda, la x no tocar esa cuerda):
https://www.youtube.com/watch?v=XaZgXuEN1Ms




[Eco chords][Eco cifra]
© LaCuerda.net · aviso legal · privacidad · es · en · pt · contacto