Acordes de Guitarra » D »Darion Leigh » Sueño imposible (Tab)

Sueño imposible
Darion Leigh

Letras, Acordes y Tabs para Guitarra, Bajo y Ukulele

  • e-------2----
    b-2-----2----
    g-1-----2----
    d-2----------
    a------------
    e------------
    
    
    Intro: MIm-SOL#-DO#m-LA-MI7
    
        LA      LA7au   DO#m
    Con fe lo imposible soñar
       RE         RE7au    SIm (IV:2-3-4)
    Al mal combatir sin temor
    DO#m                         RE
    Triunfar sobre el miedo invencible
       SIm              MI7
    En pie soportar el dolor
    
    
    
  • E|--2--0---2---0----|---3-2-3 2-------|
    B|------------------|-----------------|
    G|------------------|-----------------|
    d|------------------|-----------------|
    a|------------------|-----------------|
    e|------------------|-----------------|
    
    
       A                C#m                            
     Con fe lo imposible soñar,
    
         D
     al mal combatir sin temor
    
      C#m                       D
     triunfar sobre el miedo invencible
    
          Bm             E-7
     en pie soportar el dolor.
    
    
  •       MI                                      
     Con fe lo imposible soñar,
    
         FA sost.
     al mal combatir sin temor
    
           SOL sost.                LA
     triunfar sobre el miedo invencible
    
          FA sost.           SI
     de pie soportar el dolor.
    
    
        MI
     amar la pureza sin par,
     buscar la verdad del error
     vivir con los brazos abiertos
     creer en un mundo mejor.
    
            MI
    
  • -------------------------------------------mi
    -------------------------------------------la
    -------------------------------------------re
    ----1------1----2---------2-----1----------sol
    -------0------------0--------------0-------si
    -------------------------------------------mi
    
    -------------------------------------------mi
    -------------------------------------------la
    ----------1---------------------------1----re
    ----------2-----2-----------------2----2---sol
    ---0------3--------0----3----0----------3--si
    -------------------------------------------mi
    
    -------------------------------------------mi
    -------------------------------------------la
    -----------3-----1----2--------------------re
    -----------4-------------------------------sol
    ---2--------4------------0----2------4-----si
    -----------------------------------------0-mi
    
    --------------------------------------------0---mi
    --------------------------------------------2---la
    ---------------3-------------------------
  • +
    ¡Colabora con nosotros!
    Envíanos tu versión de esta canción

Letra de Sueño imposible
Con fe lo imposible soñar,
al mal combatir sin temor
triunfar sobre el miedo invencible
de pie soportar el dolor.
amar la pureza sin par,
buscar la verdad del error
vivir con los brazos abiertos
creer en un mundo mejor.
ese es mi ideal
la estrella alcanzar
no importa cuan lejos
se pueda encontrar
luchar por el bien
sin dudar ni temer
y dispuesto, el infierno arrastrar
si lo ordena el deber.
y yo se que si logro ser fiel

sol sost 7
a mi sueño ideal
estara mi alma en paz
al llegar de mi vida el final.
y sera este mundo mejor
si hubo quien despreciando el dolor
lucho hasta el ultimo aliento
por ser siempre fiel a su ideal.
esta va dedicada a la persona mas importante
de mi vida
para ti martha

Video de Sueño imposible
[]




[Sueño imposible chords][Sueño imposible cifra]
© LaCuerda.net · aviso legal · privacidad · es · en · pt · contacto