Tablatura para Guitarra de Danilo Montero: Quiero Proclamar
Conexión · Inscripción
Letras y Acordes
Pantalla Completa
Imprimir
Versión Texto
Añadir Favorito
Otras Versiones

Mostrar Diagramas
Desfile Automático
Manipular Acordes
Formato del Texto


Quiero Proclamar(TAB)

Danilo Montero

calidad:
dmon0343
AUTOR: Danilo Montero  corregir
ALBUM: desconocido
Enviado por Cesar, basado en Arturo
INTRO:

TOCAR ESTAS 8vas.

E-----------------------------
B-----------------------------
G---7-8---10------7-5---------
D-----------------------8-6---
A---5-6---8-------5-3---------
E-----------------------6-4---

E--------------10-------------
B--------------11-------------
G---7-8---10---10---7-5-------
D-----------------------8-6---
A---5-6---8---------5-3-------
E-----------------------6-4---

VERSO

Eb Bb Cm Quiero proclamar
G# Fm Que Tú eres mi gozo
Eb Bb Cm G# Fm Mi felicidad, mi mejor sonrisa PRECORO
Cm Bb G# Que hoy estoy completo
Fm Eb Bb Pues llegaste Tú
Cm Bb G# Que hoy estoy completo
F G# Pues Tú eres CORO
Eb Bb Cm G# G#m Mi Señor, mi fuerza, mi guía
Eb Bb Cm Mi Señor, mi Padre
G# Eb El dueño de mi Amor
Este fichero es trabajo propio de su transcriptor y representa su interpretación personal de la canción. El material contenido en esta página es
para exclusivo uso privado, por lo que se prohibe su reproducción o retransmisión, así como su uso para fines comerciales.

© LaCuerda.net · Aviso Legal · Privacidad