Acordes de Guitarra » D »Dani del Corral » Un pedazo de mí (Tab)

Un pedazo de mí
Dani del Corral

Letras, Acordes y Tabs para Guitarra, Bajo y Ukulele

  •     E                B                C#m     B        A
    E||------------------------------------------------------------------------|
    B||------------------------------------------------------------------------|
    G||----1---1---1--------4---4---4--------6-------4--------2---2---2--------|
    D||--2---2---2---2-2--4---4---4---4-4--6---6-6-4---4-4--2---2---2---2-2----|
    A||-2-2-2-2-2-2-2-2--2-2-2-2-2-2-2-2--4-4-4-4-2-2-2-2--0-0-0-0-0-0-0-0-----|
    D||------------------------------------------------------------------------|
    
    Guitarra 2
        E                     B               C#m       B
    E||----2-4-----2-4-2h4h2-----0-2-----0-2-----4---------2---
    B||--5-----5-5----------5--4-----4-4-------5---5-----4---4-
    G||-4-4-4-4-4-4-4---------4-4-4-4-4-4-4-4/6-6-6---6/4-4-4--
    D||--------------------------------------------------------
    A||--------------------------------------------------------
    D||--------------------------------------------------------
          A
       ------5---4---2-4-2h4h2-0--|
       ----5---5---5--------------|
       -4/6-6-6-6-6-6-------------|
    
  • +
    ¡Colabora con nosotros!
    Envíanos tu versión de esta canción

Letra de Un pedazo de mí
Guitarra 2
Estrofa/Coro:
Guitarra 1
Guitarra 2
Voy a darte un pedazo de mí
Para que te acompañe en las noches
Y que te haga sonreír
Cada vez que recuerdes mi nombre
Sé que nunca vas a regresar
Es eterno el momento de verte
Aunque te deje escapar
Fue mi culpa por no detenerte
Pre Coro:
Guitarra 1
Guitarra 2
A veces me voy
Me siento invisible
Dime quien soy
Y no me importa
Que digan lo que digan nunca daño a nadie
Era tan difícil no volver a buscarte
Solos tú y yo
Y no me importa
Que pase lo que pase nunca voy a olvidarte
Siempre estás presente no he podido alejarme
Solos tú y yo
Estrofa:
Tu silencio me corta la piel
Y no es fácil decir lo que siento
Ver tu foto en la pared
Me recuerda los buenos momentos
Con el tiempo aprendí a perdonar
Y olvidar la locura de siempre
Es muy tarde y ya te vas
Y me duele tener que perderte
Pre Coro:
A veces me voy
Me siento invisible
Dime quien soy
Y no me importa
Que digan lo que digan nunca daño a nadie
Era tan difícil no volver a buscarte
Solos tú y yo
Y no me importa
Que pase lo que pase nunca voy a olvidarte
Siempre estás presente no he podido alejarme
Solos tú y yo
Y no me importa
Que digan lo que digan nunca daño a nadie
Era tan difícil no volver a buscarte
Solos tú y yo
Y no me importa
Que pase lo que pase nunca voy a olvidarte
Siempre estás presente no he podido alejarme
Solos tú y yo




[Un pedazo de mí chords][Un pedazo de mí cifra]
© LaCuerda.net · aviso legal · privacidad · es · en · pt · contacto
DINAMICO