Acordes de Guitarra » C »Cruzando el Charco » A donde están (Tab)

A donde están
Cruzando el Charco

Letras, Notas, Punteos, Tablaturas y Acordes de Guitarra (Tabs & Chords)

  • Letra y Acordes
      D5                  F#5
    e|------------------|------------------|
    B|------------------|------------------|
    G|------------------|------------------|
    D|---7-6-------7-6--|---2--------2-----|*X3
    A|-5-----7---5-----7|-----2-4------2-4-|
    E|------------------|-2--------2-------|
      D5                                E5
    e|------------------|----------------------|
    B|------------------|----------------------|
    G|------------------|----------------------|
    D|---7-6-------7-6--|---------------2------|
    A|-5-----7---5-----7|---------------2------|
    E|------------------|-2-2-4-4-5-5-2-0------|
    
          A                         C#m7
    Reprimir el costado mas sentimental
                              Bm7
    de esa fiera que guardás ahí
                                    F#m
    
  • Letra y Acordes
    (4)|D|---7-6-----7-6----2-------2------|
    (5)|A|-5-----7-5----7-----2^4-----2^4--|
    (6)|E|----------------2--------2-------|
    
    Riff 2:
    
    (5)|A|-------------4-/-7-|
    (6)|E|-2-2-4-4-5-5-------|
    
    Intro: Riff 1-x3, Riff 2, E.
    
    A                               Cm#7
    Reprimir el costado mas sentimental
                              Bm
    de esa fiera que guardás ahí
                                    F#m
    si te queda en el pecho un barrial
         E                        A
    a la noche, ¿quién se va a dormir?
    
    
  • Tablatura
    e|----------------|-----------------------|-------5b6-------------|
    B|-----5-5--6b7---|-----5-5-7-7b9-7p5-7-5-|---5-7-----7-12b14-12~-|
    G|-5/6---------4~-|-5/6-------------------|-6---------------------|
    D|----------------|-----------------------|-----------------------|
    A|----------------|-----------------------|-----------------------|
    E|----------------|-----------------------|-----------------------|
    
    e|-13-12-13-7----------------------------------------------------------------|
    B|------------7h9-5-7---5-5-------------------------------9-10-11-12---------|
    G|--------------------6-----4h6p4-----------------11b13--------------13r11-9-|
    D|--------------------------------7-4---7-7-4-7/9----------------------------|
    A|------------------------------------7--------------------------------------|
    E|---------------------------------------------------------------------------|
    
    e|-----------------------------10--------------------|
    B|---------------10--12b14-b14----14r12-12p10-12-10~-|
    G|----9-------11-------------------------------------|
    D|-11---11-12----------------------------------------|
    A|---------------------------------------------------|
    E|---------------------------------------------------|
    
  • +
    ¡Colabora con nosotros!
    Envíanos tu versión de esta canción

Letra de A donde están
Reprimir el costado mas sentimental
de esa fiera que guardás ahí
si te queda en el pecho un barrial
a la noche, ¿quién se va a dormir?
Si mañana prometés cambiar,
desterrarte de ese cruel festín
la palabra no la va a olvidar
de esa gente que siempre está ahí.
Cuándo se van, ¿habías sentido la soledad?
¿A dónde están los que decían querer verte bien?
te aconsejaban si no dabas más
y ahora no hay nadie, te duele saber
y vas temblando contra la pared.
¿a dónde vas? ¿en qué refugio guardarás tu piel?
fue aquella dama que robó tu fe.
Son tantas noches sin amanecer,
y estás llorando desde que se fue.
Rebelión, tu garganta quiere reventar,
en un grito nunca más sufrir
y el aguante se hace realidad
cuando el miedo deja de existir.
Cuándo se van, ¿habías sentido la soledad?
Si sabés que esas cosas te roban la calma
no medís consecuencias y sólo vivís.
¿A dónde están los que decían querer verte bien?
te aconsejaban si no dabas más
y ahora no hay nadie, te duele saber
y vas temblando contra la pared.
¿a dónde vas? ¿en qué refugio guardarás tu piel?
fue aquella dama que robó tu fe.
Son tantas noches sin amanecer,
y estás llorando desde que se fue.
Desde que se fue
y estás llorando desde que se fue
ya no das más
y estás llorando desde que se fue
ya no das más.....



© LaCuerda.net · Aviso Legal · Privacidad