Tablatura para Guitarra de Coti: 50 Horas
Conexión · Inscripción
Letras y Acordes
Pantalla Completa
Imprimir
Versión Texto
Añadir Favorito
Otras Versiones

Mostrar Diagramas
Desfile Automático
Manipular Acordes
Formato del Texto


50 Horas(TAB)

Coti

calidad:
coti0611
AUTOR: Coti  corregir
ALBUM: desconocido
Enviado por Alexis
TABLATURA DEL INTRO:

e|-------------------------------|------------------------------------|
B|-------------------------------|------------------------------------|
G|-------------------------------|------------------------------------|
D|-------2--4/6--4----2--4/6--4--|--------2--4/6--4----2--4/6--4--2---|
A|--2--4-------------------------|--2--4------------------------------|
E|-------------------------------|------------------------------------|

e|--------------------------------------------------------------------|
B|--------------------------------------------------------------------|
G|---------------------------------1--4--1----------------------------|
D|-------2--4/6--4--------------2----------4--2--2--------------------|
A|--2--4-------------------2-4----------------------------------------|
E|--------------------------------------------------------------------|

E G#m7 Se cayeron mis creencias por el suelo
C#m7 Como papeles pisados
F#m7 D El francés me suena como el arameo
B Y parís desencajado
E G#m7 El futuro es una caja de promesa
C#m7 Y la promesa ya es de humo
F#m7 D Yo te escucho no tengo nada mejor
B Que hacer después del desayuno
A B G#m7 C#m7 No puede ser, que estés, tan sola
A B G#m7 No puede ser que estés tan sola
C#m7 A B G#m7 C#m7 Con lo buena que estas, yo podría estar 50 horas
A G#m7 F#m7 B7 E Robándote besos, de esos que vos me dejas robar
INTERLUDIO: A B G#m7 C#m7 - A B E [Tocar Nuevamente la Tablatura del Intro]
E G#m7 Es tan lindo el sol nos da la bienvenida
C#m7 Y los gorriones en silencio
F#m7 D Se devoran lo que se nos cae al suelo
B Las penas y lo desvelos
E G#m7 El papel es un cuchillo y tu mirada
C#m7 La propina de la noche
F#m7 D Si las cuerdas se te oxidan con el tiempo
B La madera se hace roble
A B G#m7 C#m7 No puede ser, que estés, tan sola
A B G#m7 No puede ser que estés tan sola
C#m7 A B G#m7 C#m7 Con lo buena que estas, yo podría estar 50 horas
A G#m7 F#m7 B7 E Robándote besos, de esos que vos me dejas robar
A B G#m7 C#m7 No puede ser, que estés, tan sola
A B G#m7 No puede ser que estés tan sola
C#m7 A B G#m7 C#m7 Con lo buena que estas, yo podría estar 50 horas
A G#m7 F#m7 B7 E Robándote besos, de esos que vos me dejas robar OUTRO: A B G#m7 C#m7 - A B E TABLATURA DEL OUTRO: e|-------------------------------|------------------------------------| B|-------------------------------|------------------------------------| G|-------------------------------|------------------------------------| D|-------2--4/6--4----2--4/6--4--|--------2--4/6--4----2--4/6--4--2---| A|--2--4-------------------------|--2--4------------------------------| E|-------------------------------|------------------------------------| e|--------------------------------------------------------------------| B|--------------------------------------------------------------------| G|---------------------------------1--4--1----------------------------| D|-------2--4/6--4--------------2----------4--2--2--------------------| A|--2--4-------------------2-4----------------------------------------| E|--------------------------------------------------------------------| TUTORIAL EN VIDEO AQUI: https://www.youtube.com/watch?v=4ZFQVlwI8Eg Salu2.
Este fichero es trabajo propio de su transcriptor y representa su interpretación personal de la canción. El material contenido en esta página es
para exclusivo uso privado, por lo que se prohibe su reproducción o retransmisión, así como su uso para fines comerciales.

© LaCuerda.net · Aviso Legal · Privacidad