Acordes de Guitarra » C »Conquistando Fronteras » Voy Cantando (Tab)

Voy Cantando
Conquistando Fronteras

Letras, Acordes y Tabs para Guitarra, Bajo y Ukulele

  • D F#m G
    bombeo en batería con las voces
    
    SEGUNDA PARTE DE LA INTRO E INTERMEDIO
    e-----------s7------------|
    B--7-5-7-5-7---7-5-7-5----|x4 2 veces en D y 2 en G
    G----------------------7--|
    
    D D G G
    
    Verso 1
    D             A/F#
    El tiempo, de la canción llegó,
    Bm                  G/E                   D
    Los cielos, destilan gloria y salvación
            A/F#            G/E
    La tierra resplandece con tu LUZ
              G             G
    Cautivándonos, con tu cruz… y yo
    
    
  • D                                  F#m
    Voy cantando, voy cantando a tu presencia
          G
    A tu presencia, cantando santo
    
    
    
    D         F#m              Bm
    El tiempo de la canción llegó
                   G                    D
    Los cielos destilan gloria y salvación
                   F#m              G
    La tierra resplandece con tu luz
    G
    Cautivándonos con tu cruz
    
         D                                  F#m
    y yo voy cantando, voy cantando a tu presencia
         G
    A tu presencia, cantando santo
    
  • E.|---------------------------------|
    B.|--------------12-----------------|
    G.|-11--11--9-------11-9-11-9-------|
    D.|---------- 12--------------12----|    | X4|
    A.|---------------------------------|    |   |
    E.|---------------------------------|
    
    
    E.|-----------------------------------------------------14-14-14---17--19--21|
    B.|--------------------------------------12--15--17--19----------------------|
    G.|-14-14-14-11-11--14-14-14-11-11-14-14-------------------------------------|
    D.|--------------------------------------------------------------------------|
    A.|--------------------------------------------------------------------------|
    E.|--------------------------------------------------------------------------|
    
    D         F#m               Bm
    El tiempo, de la canción llegó,
                     G                  D
    Los cielos, destilan gloria y salvación
        D     F#m                Bm
    
  • E.|-2-2-0-2-5-2-0-2-0--------|
    B.|-------------------2------|
    G.|--------------------------|
    D.|--------------------------|    | X4|
    A.|--------------------------|    |   |
    E.|--------------------------|
    
    
    
    E.|----------------------------------------------------/17|
    B.|-/10--/7-7--/10-10--/7-7--/10-12/15-15--/17-/19-/20----|
    G.|-------------------------------------------------------|
    D.|-------------------------------------------------------|
    A.|-------------------------------------------------------|
    E.|-------------------------------------------------------|
    
    
    
    
    D         F#m               Bm
    
  • +
    ¡Colabora con nosotros!
    Envíanos tu versión de esta canción

Letra de Voy Cantando
Voy cantando, voy cantando a tu presencia
A tu presencia, cantando santo
El tiempo de la canción llegó
Los cielos destilan gloria y salvación
La tierra resplandece con tu luz
Cautivándonos con tu cruz
y yo voy cantando, voy cantando a tu presencia
A tu presencia, cantando santo
y voy danzando, voy danzando a tu presencia
A tu presencia, cantando santo
Canta, mi espíritu canta
Danza, mi espíritu danza
edgar-universitario@hotmail.com




[Voy Cantando chords][Voy Cantando cifra]
© LaCuerda.net · aviso legal · privacidad · es · en · pt · contacto