Acordes de Guitarra » C »Coalo Zamorano » Eres mi amigo fiel (Tab)

Eres mi amigo fiel
Coalo Zamorano

Letras, Acordes y Tabs para Guitarra, Bajo y Ukulele

  •       Emaj9                         B7
    | e ||-------12---------12---------|-------12----------12--------|
    | B ||-10-9------10-9-------10-9---|-10-9------10-9-------10-9---|
    | G ||------9---------9----------9-|------9---------9----------9-|
    | D ||-----------------------------|-----------------------------|
    | A ||-----------------------------|-----------------------------|
    | E ||-----------------------------|-----------------------------|
          F#m7                          Emaj9 (A LA 2da va Dadd2)
    | e ||-------12---------12---------|-------12---------12---------|
    | B ||-10-9------10-9-------10-9---|-10-9------10-9-------10-9---|
    | G ||------9---------9----------9-|------9---------9----------9-|
    | D ||-----------------------------|-----------------------------|
    | A ||-----------------------------|-----------------------------|
    | E ||-----------------------------|-----------------------------|
    
    en esta parte arpegea en lugar de dar todo el acorde
    Estrofa:
    
      C#m
    //Quien soy yo para que en mi tu pienses
    
  • e---------------12---------------12-------------------------
    B---10-s9------------10-s9----------10-s9-------------------
    G-----------10----------------10-------------10-------------
    D-----------------------------------------------------------
    A-----------------------------------------------------------
    E-----------------------------------------------------------
    Se repite esto 4 veces y luego 3 veces mas y en lo
    último se toca esto:
    e-----------------12--------12------------------------------
    B---10-s9-------------9-10-----10-10--12-12-----------------
    G-----------10----------------------------------------------
    D-----------------------------------------------------------
    A-----------------------------------------------------------
    E-----------------------------------------------------------
    
       E                              C#m9
    //Quien soy yo para que en mi tu pienses
           F#m7add4        E
    Y que escuches, mi clamor
    E                            C#m9
    
  • Intro:   E - Bm7 - F#m7 - E
                 E -  Bm7 - F#m7 - D
    e---------------12---------------12-------------------------
    B---10-9------------10--9------------10-9-------------------
    G---------9-----------------9----------------9--------------
    D-----------------------------------------------------------
    A-----------------------------------------------------------
    E-----------------------------------------------------------
    Se repite esto 4 veces y luego 3 veces mas y en lo
    último se toca esto:
    e-----------------12----------12----------------------------
    B---10-9--------------9-10----------10--9-9--12-12----------
    G-----------9---------------9-------------------------------
    D-----------------------------------------------------------
    A-----------------------------------------------------------
    E-----------------------------------------------------------
    
    
       Emaj9 (Pausa . . . . . . . . )C#m7
    //Quien soy yo para que en mi tu pienses
    
  • Hola a todos saludos desde El Salvador a todos,
    aqui estan las figuras de esta rola que esta excelente
    
    Están un 95% exactas...
    
    Intro.
    1a. Parte:
            E             B             F#               E
    E-0-0--0-0--0-0-----------------2-2--2-2--2-2--0-0--0-0--0-0--|
    A----------------2-2--2-2--2-2--------------------------------|
    D-------------------------------------------------------------|
    G-------------------------------------------------------------|
    Luego va un pequeño adorno que va asi:
    E--------------|
    A--------------|
    D-9/11------9--|
    G-------9------|
    2a. Parte:
           E              B              F#               E
    E-0-0--0-0--0-0-----------------2-2--2-2--2-2-----------------|
    A----------------2-2--2-2--2-2-----------------5-5--5-5--5-5--|
    D-------------------------------------------------------------|
    G-------------------------------------------------------------|
    
    I Estrofa:
    
        E               C#
      Quien soy...    pienses                          y que
    E--0-------------
  • Intro
    
    E0-0-0-0-0-0---/--------------------------/2-2-2-2-2-2-2-2-2/0-0_--------------
    A-----------2-2/--------------------------/-----------------/----7-7-7-7-7-----
    D------------2-/---------4---------4------/-----------------/-------------9-9--
    G--------------/4-4-4-4---4-4-4-4---4--4-6/-----------------/--------------9---
    
    E0-0-0-0-0-0----/------------------/2-2-2-2-2-2-2-2-2/-------------0--
    A------------2-2/--2-2-2-2-2-2-2-2-/-----------------/5-5-5-5-5-5-5---
    D-------------2-/-4----------------/-----------------/----------------
    G---------------/4-----------------/-----------------/----------------
    
    Quién soy yo para que en mi tu pienses
    
    
    silde (16)_(9) cuerda E
    
                                    Y que escuches
    E9--------------9--------------/14--------------14-----------
    A-11--11------11-11-11---------/--16--16------16--16--16-----
    D---11--13--11----11---11 13 14/----16---18-16------16--17-18
    G------------------------------/-----------------------------
    
    Mi clamor            sli
  • H= contra cerrados
    Ha= contras abiertos o medio abiertos (X un golpe y abres contra)
    S= tarola
    B=bombo
    T1= tom 1
    Tp=tom de piso
    R=ride (campana)
    C=crash
    S=splash
      Intro; empieza batería marcando con contras...
    
    Ha|xxxxxxxxxxxxxxxxxxxxxxxxxxxxxx-|
       1 y 2 y 3 y 4 y 1 y 2 y 3 y 4 y
      Entra lo demás aquí
    Ha|--x-x-x-x-x---x-x-x-x-x---x---x-|x-x-x---x-x-x-x-x---x-x-x-x---x-|
    S |o-----o-----o-----o-----o---o---|o-----o-----o-----o-----o---o---|
    B |----o---o-------o---o-----------|----o---o-------o---o-----------|
    C |X-----------X-----------X---X---|------X-----------X---------X---|
       1 y 2 y 3 y 4 y 1 y 2 y 3 y 4 y  1 y 2 y 3 y 4 y 1 y 2 y 3 y 4 y
    
    Ha|--x-x---x-x-x-x-x---x-x-x-x---x-|x-x-x-x-x-x-x-x-x-x-x-x-x-x-----|
    S |o-----o-----o-----o-----o---o---|o-----o-----o-----o-----o-------|
    B |----o---o-------o---o-----o-----|----o---o-------o---o-----------|
    C |--------------------------------|--------------------------------|
    T1|--------------------------------|---------------------------
  • +
    ¡Colabora con nosotros!
    Envíanos tu versión de esta canción
  • Tutorial
    HD
    Coalo Zamorano El Es Mi Amigo Fiel Video (I Am A Friend Of God)
    Bajo/Bass Tutorial With Tabs (HD)
    5:34

Letra de Eres mi amigo fiel
en esta parte arpegea en lugar de dar todo el acorde
Estrofa:
//Quien soy yo para que en mi tu pienses
Y que escuches, mi clamor
Y es verdad lo que tu hoy me dices
Que me amas, me asombras//
Aqui si deja sonando los acordes y escucha los cambios de ellos
//Eres mi amigo fiel
Eres mi amigo fiel
Eres mi amigo fiel
Tu amigo soy//
//Quien soy yo para que en mi tu pienses
Y que escuches, mi clamor
Y es verdad lo que tu hoy me dices
Que me amas, me asombras//
//Eres mi amigo fiel
Eres mi amigo fiel
Eres mi amigo fiel
Tu amigo soy//
en esta parte usas la tecnica de picking
///Majestuoso, poderoso
Tu amigo soy///




[Eres mi amigo fiel chords][Eres mi amigo fiel cifra]
© LaCuerda.net · aviso legal · privacidad · es · en · pt · contacto