Acordes de Guitarra » C »Claudia Lorelle » Lugar secreto (Tab)

Lugar secreto
Claudia Lorelle

Letras, Acordes y Tabs para Guitarra, Bajo y Ukulele

  • ---0--------0--------0------------------0----
    --0--0-0---0--0-0---0--0-0--0----------0-0---
    -0----0---0----0---0----0--0---0------0---0--
    ---------------------------------------------
    ---------------------------------------------
    0-------10-------8--------7---8--10-12-------
    
    -----0--------0----------------12------12----
    ----0-0------0-0-----0--------0--12----12----
    12-0---0-12-0---0---0--0-----0-----12--12----
    ---------------------------------------------
    ---------------------------------------------
    ------------------10--8-7-0------------------
    
    
    Em              Bm7
    solo junto a ti quiero estaaar..
    C9                D9           D
    en tu presencia encuentro la paz
    Em               Bm7
    
  • INTRO: Em Bm C D
    
    Estrofa
    Em              Bm7
    Solo junto a ti quiero estaaar...
    Cadd2              D
    en tu presencia encuentro la paz
    Em               Bm7
    solo junto a ti quiero estaaar...
    Cadd2              D
    en tu presencia me quiero refugiar
    
    Pre-Coro
    G                     D                  Cadd2
    No hay límites de tiempo en mi lugar secreto
          Em        D      G
    solo quiero pensar en ti
    G                     D                  Cadd2
    no hay límites de tiempo en mi lugar secreto
    Em                D
    
  • e-----0-----0--------0-----0--------0-----0-------
    b----0-0---0-0-0-0--0-0---0-0-0-0--0-0---0-0-0-0--
    g---0---0-0---0-0--0---0-0---0-0--0---0-0---0-0---
    d-------------------------------------------------
    a-------------------------------------------------
    e--8-----7--------8-----7--------5-----5----------
    
    e----0-----0--------0-----0-----0-----0-----------
    b---0-0---0-0-0-0--0-0---0-0---0-0---0------------
    g--0---0-0---0-0--0---0-0---0-0---0-0-------------
    d-------------------------------------------------
    a-------------------------------------------------
    e-8-----7--------8-----7-----8-----8--------------
    
    el solo
    esta en b mayor es muy sencillo
    
    e---------------------------------------
    b-------------------10------------------
    g---------9-11-12-11--12-11-9-----------
    
  • +
    ¡Colabora con nosotros!
    Envíanos tu versión de esta canción

Letra de Lugar secreto
en tu presencia encuentro la paz
en tu presencia me quiero refujiar
no hay limites de tiempo en mi lugar secreto
no hay limites de tiempo en mi lugar secreto
y cerrada la puerta poderte contemplar
y cerrada la puerta adoraaar
y cerrada la puerta poderte con templar
en mi lugar secreto




[Lugar secreto chords][Lugar secreto cifra]
© LaCuerda.net · aviso legal · privacidad · es · en · pt · contacto