Acordes de Guitarra » C »Cirse » Algo Quedará (Tab)

Algo Quedará
Cirse

Letras, Acordes y Tabs para Guitarra, Bajo y Ukulele

  • La canción empieza con un slide en la 4° cuerda desde el traste 12
    hasta el traste 3 aproximadamente.
    
    Verso
    G|---------------|  (x8) [pausa] (x8)
    D|---------------|
    A|---------------|
    E|-0-0--0-0--0-0-|
    
    [Otro1] Yo elijo oírte... (0:54)
    E|-0-3~|
    
    Estribillo
    G|---------------------------------------| (x4)
    D|---------------------------------------|
    A|---------3--3-3--3-------------------5-|
    E|-0---0-0-------------5---5--5-3--3-3---|
    
    Antes y durante el segundo verso hace lo mismo que en el primero pero con este
    arreglito intercalado
    E|-0-3-0-55-03-0-0--0-0--0-0-|
    
    Pre-estribillo (2:01)
    G|--------------------------------------------------|
    D|--------------------------------------------------|
    A|-3---3-3-3--0---0-0--0----------------------------|
    E|--------------------------0---0-0--3--3-3--3--3-3-|
    
    Post estribillo (2:33)
    G|----------------|-----------------------------------|----------------|
    D|----------------|-----------------------------------|----------------|
    A|-3-(x8)-5-(x8)--|
  • +
    ¡Colabora con nosotros!
    Envíanos tu versión de esta canción






[Algo Quedará chords][Algo Quedará cifra]
© LaCuerda.net · aviso legal · privacidad · es · en · pt · contacto
DINAMICO