Acordes de Guitarra » C »Chulpi Tostado » Ahí te ves (Tab)

Ahí te ves
Chulpi Tostado

Letras, Acordes y Tabs para Guitarra, Bajo y Ukulele

  • INTRO
    
                                                         ----|
    e|------------------------------------------------------||
    B|------------------------------------------------------||
    G|------------------------------------------------------||
    D|----6--------6-----6-------6---2-------2-----2------2-||
    A|-4-----4-4------4-----4-4----0----0-0-----0-----00----||
    E|------------------------------------------------------||se repite
                                                             |2 veces
    e|------------------------------------------------------||
    B|------------------------------------------------------||
    G|------------------------------------------------------||
    D|--------------------------------4-------4-----4-4-2-1-||
    A|----2-------2-----2-------2--2-----2-2-----2----------||
    E|-0-----0-0-----0-----0-0------------------------------||
                                                         ----|
    
    
    En la vida todo no es felicidad...
    e|-----------------------------|
    B|--------------------
  • e-------------------------------------------
    B-------------------------------------------
    G-------------------------------------------
    D---6-----6---6-----6-----------------------
    A-4---4-4---4---4-4-------7-----7---7-----7-
    E-----------------------5---5-5---5---5-5---
    
    e-------------------------------------------
    B-------------------------------------------
    G-------------------------------------------
    D-------------------------4-----4-----------
    A---2-----2---2-----2---2---2-2---4-4-2-1---
    E-0---0-0---0---0-0-------------------------
    
    
     (A) Verso1:
    
    e-------------------------------------------
    B-------------------------------------------
    G-------------------------------------------
    
  • +
    ¡Colabora con nosotros!
    Envíanos tu versión de esta canción

Letra de Ahí te ves
(B) Verso1:
A: En la vida no todo es felicidad
(Solamente momentos de alegría)
B: Hay muchas cosas que te hacen despertar
(Momentos que no se repetirán)
A: Gente que viene gente que va
(Gente que tiene gente que da)
B: Gente que no volverás a ver jamás
Verso 1: (Guitarra distorsión)
(D) Verso1:
C: En la vida no todo es felicidad
(Solamente momentos de alegría)
D: Hay muchas cosas que te hacen despertar
(Momentos que no se repetirán)
C: Gente que viene gente que va
(Gente que tiene gente que da)
D: Gente que no volverás a ver jamás
ANTES DEL CORO:
***********
PALM MUTE
No cuanto dolor
Cuanta traición, en mi corazón
Ahí te ves
DESPUÉS DEL CORO:
***********
PALM MUTE
Verso 2:
C: Que es lo mas importante
(Que no había nadie más que tú)
D: Para ti es más fácil olvidar
(El verte a ti con alguien más)
C: Y ahora sé que no regresarás
(Que ya nunca volverás)
D: Estaré aquí al despertar
ANTES DEL CORO:
***********
PALM MUTE
No cuanto dolor
Cuanta traición, en mi corazón
Ahí te ves
Tengo la canción hasta aquí...pero pronto la transcribo desde
la parte que empieza lo lento...Así que regresen para verla
luego

Video de Ahí te ves
[]




[Ahí te ves chords][Ahí te ves cifra]
© LaCuerda.net · aviso legal · privacidad · es · en · pt · contacto