Tablatura para Guitarra de Christine d'Clario: Gloria en lo alto
Conexión · Inscripción
Letras y Acordes
Pantalla Completa
Imprimir
Versión Texto
Añadir Favorito
Otras Versiones

Mostrar Diagramas
Desfile Automático
Manipular Acordes
Formato del Texto


Gloria en lo alto(TAB)

Christine d'Clario

calidad:
chdc0083
AUTOR: Christine D’clario
ALBUM: De Vuelta al Jardín (2010)
Enviado por Jose
Intro:

e-23-22-23-22-20-22-23-22-23-22-20-22-23-22-23-22-20-22-23-22-20-22-23 x2
B---------------------------------------------------------------------
G---------------------------------------------------------------------
D---------------------------------------------------------------------
A---------------------------------------------------------------------
E---------------------------------------------------------------------

Verso:

arpegio:

e----------
B----------
G---7-8-7-8 x8 durante todo el verso
D-8--------
A----------
E----------


Quebrantado fuiste

¡Oh Jesús! por mi rebelión

Resucitaste y hoy puedo vivir

Y de nuevo nacer


Pre coro:

Arpegio:

e----------------------------------------
B-----4---4-----4---4--------------------
G---5---5-----5---5-----7-8-7-8---7-8-7-8 x2 durante todo el pre coro
D-5---------6---------8---------8--------
A-3-------------------6------------------
E-----------4-------------------6--------

Cuanto amaste al mundo Dios

Cuanto te quiero agradecer


Coro:

Requinto:

e-23-22-23-22-20-22-23-22-23-22-20-22-23-22-23-22-20-22-23-22-20-22-23
B---------------------------------------------------------------------
G---------------------------------------------------------------------
D---------------------------------------------------------------------
A---------------------------------------------------------------------
E---------------------------------------------------------------------

(2 veces durante el coro)

Gloria, gloria en lo alto

Gloria en lo alto, gloria al Rey

Gloria, gloria a Ti mi Cristo

Tu nombre por siempre exaltaré


verso: (solo bajo y bateria)

Venciste el mundo pecador

Con tu gran amor

Ahora el Padre te ha exaltado

al más alto lugar


pre coro:

Arpegio:

e----------------------------------------
B-----4---4-----4---4--------------------
G---5---5-----5---5-----7-8-7-8---7-8-7-8 x2 durante todo el pre coro
D-5---------6---------8---------8--------
A-3-------------------6------------------
E-----------4-------------------6--------

Cuanto amaste al mundo Dios

Cuanto te quiero enaltecer


Coro:

Requinto:

e-23-22-23-22-20-22-23-22-23-22-20-22-23-22-23-22-20-22-23-22-20-22-23
B---------------------------------------------------------------------
G---------------------------------------------------------------------
D---------------------------------------------------------------------
A---------------------------------------------------------------------
E---------------------------------------------------------------------

(2 veces durante el coro)

Gloria, gloria en lo alto

Gloria en lo alto, gloria al Rey

Gloria, gloria a Ti mi Cristo

Tu nombre por siempre exaltaré

solo:

e-23-22-23-22-20-22-23-22-23-22-20-22-23-22-23-22-20-22-23-22-20-22-23
B---------------------------------------------------------------------
G---------------------------------------------------------------------
D---------------------------------------------------------------------
A---------------------------------------------------------------------
E---------------------------------------------------------------------

(Despues del solo se sigue con el mismo requinto hasta finalizar la alabanza)
Este fichero es trabajo propio de su transcriptor y representa su interpretación personal de la canción. El material contenido en esta página es
para exclusivo uso privado, por lo que se prohibe su reproducción o retransmisión, así como su uso para fines comerciales.

© LaCuerda.net · Aviso Legal · Privacidad