Acordes de Guitarra » C »Christian Nodal » Adiós Amor (Tab)

Adiós Amor
Christian Nodal

Letras, Acordes y Tabs para Guitarra, Bajo y Ukulele

  • INTRO B7 Em A7 D B7 Em A7 G A7
    
             B7          Em       A7
    Miro tus ojos y no eres feliz
                      D         B7
    Y tu mirada no sabe mentir
                        Em      A7
    No tiene caso continuar así
                        D         B7
    Si no me amas es mejor partir
    
                           Em           A7
    Desde hace tiempo ya nada es igual
                            D          B7
    No eres la misma y me tratas mal
                         Em         A7
    Y ante mi dios te podría jurar
                           G         A7
    Cuanto te quise y te quiero todavía
    
    
  • Intro: B7 Em A7 D B7 Em A7 G A7
    e|-3-3-5-7-5-3-2-0--0--3---5-5-3-5-3-5-3-2-0----
    B|-5-3-7-8-7-5-3-0--0--5---7-7-5-7-5-7-5-3-0----
    G|-------------------------------------------------------2--
    
    e|3-3-5-7-5-3-2-0--0--3---5-5-3-5-3-5-3-2-0-7--9--10--9-2
    B|5-5-7-8-7-5-3-0--0--5---7-7-5-7-5-7-5-3-0-8-10-12-10-3
    
             B7          Em       A7
    Miro tus ojos y no eres feliz
                      D         B7
    Y tu mirada no sabe mentir
                        Em      A7
    No tiene caso continuar así
                        D         B7
    Si no me amas es mejor partir
    
                           Em           A7
    Desde hace tiempo ya nada es igual
                            D          B7
    
  • E |------10-12-12/14-12---10-9------12-12-|-12-14-12-14-12---14-12------------|
    B |-9h10-----------------------12---------|------------------------15---12-12-|
    G |---------------------------------------|-----------------------------------|
    D |---------------------------------------|-----------------------------------|
    A |---------------------------------------|-----------------------------------|
    E |---------------------------------------|-----------------------------------|
    
    
    E |------10-12-12/14-12---10-9------12-12-|-12-14-12-14-12---14-12------12/15-|
    B |-9h10-----------------------12---------|------------------------15---------|
    G |---------------------------------------|-----------------------------------|
    D |---------------------------------------|-----------------------------------|
    A |---------------------------------------|-----------------------------------|
    E |---------------------------------------|-----------------------------------|
    
    
    E |-17-19-17/12---12-12-------------------|
    B |---------------------------------------|
    G |---------------------------------------|
    D |---------------------------------------|
    
  • E|---2-2---5-5/7-5---3-2-----3
    B|---3-----7-7/8-7---5-3-----5
    G|----------------------4--4--
    D|---
    A|---
    E|---
    
    E|---5-5-3-3/5-3---5-3-3/5---12-10
    B|---7-7-5-5/7-5---7-5-5/7---10-10
    G|---
    D|---
    A|---
    E|---
    
    E|-----10-12--12/14-12----------------12
    B|---10------------------15-14-12---12
    G|------------
    D|---------
    A|------
    E|----
    
  • +
    ¡Colabora con nosotros!
    Envíanos tu versión de esta canción
  • Tutorial
    HD
    "Adiós amor" - Christian Nodal - Tutorial guitarra - Acordes
    4:45
  • Tutorial
    HD
    Adiós amor - DANIELA DARCOURT (Acordes)
    4:48

Letra de Adiós Amor
Miro tus ojos y no eres feliz
Y tu mirada no sabe mentir
No tiene caso continuar así
Si no me amas es mejor partir
Desde hace tiempo ya nada es igual
No eres la misma y me tratas mal
Y ante mi dios te podría jurar
Cuanto te quise y te quiero todavía
Adiós Amor
Me voy de ti
Y esta vez para siempre
Me iré sin marcha atrás porque sería fatal
Adiós Amor
Yo fuí de ti
El amor de tu vida
Lo dijiste una vez me lo hiciste creer
Como me duele perderte
Me resignaré a olvidarte
Porque me fallaste
Desde hace tiempo ya nada es igual
No eres la misma y me tratas mal
Y ante mi dios te podría jurar
Cuanto te quise y te quiero todavía
Adiós Amor
Me voy de ti
Y esta vez para siempre
Me iré sin marcha atrás porque sería fatal
Adiós Amor
Yo fuí de ti
El amor de tu vida
Lo dijiste una vez me lo hiciste creer
Como me duele perderte
Me resignaré a olvidarte
Porque me fallaste
Porque me fallaste
Porque me fallaste...




[Adiós Amor chords][Adiós Amor cifra]
© LaCuerda.net · aviso legal · privacidad · es · en · pt · contacto