Acordes de Guitarra » C »Christafari » Yeshua (Tab)

Yeshua
Christafari

Letras, Acordes y Tabs para Guitarra, Bajo y Ukulele

  • E--------------------------------------------|
    A--------------------------------------------|
    D-5---------------------3--------------------|
    G---7---------------------5------------------|
    B-----8-----8--------8------6-----6--------6-|
    E-------5-5---6-5h6p5---------3-3---5-3h5p3--|
    
    E------------------------------------|
    A------------------------------------|
    D----------------------------------5-|
    G---------------5-3-2--3/5-5-5-5h7---|
    B-6-6p4-4-3h4p3----------------------|
    E------------------------------------|
    
    
    
       Gm Dm         Eb  F  Gm  Dm
    Yeshua,        Yeshua
    
    Gm                     Dm
    
  • +
    ¡Colabora con nosotros!
    Envíanos tu versión de esta canción

Letra de Yeshua
Yeshua, Yeshua
Para encontrar la salvación
El gobierna sobre principados
Jesús tu eres me redentor
Desciende en las nubes de los cielos
Llévanos a la nueva Jerusalén
Hasta tu llegada te esperamos
Señor, Salvador mi Amigo también
Woe, woe, woe, Señor

Video de Yeshua
[]




[Yeshua chords][Yeshua cifra]
© LaCuerda.net · aviso legal · privacidad · es · en · pt · contacto