Acordes de Guitarra » C »Charlene Arian » Que digo yo (Tab)

Que digo yo
Charlene Arian

Letras, Acordes y Tabs para Guitarra, Bajo y Ukulele

  •          D                 G
    e|-----0-----0-----|-----0-----0-----|
    b|---3-----3-----3-|---3-----3-----3-|
    g|-2-----2-----2---|-0-----0-----0---| (A esto le llamaré Fig.1)
    D|-----------------|-----------------|
    A|-----------------|-----------------|
    E|-----------------|-----------------|
    
    Pre-coro:
    
             D                 G
    e|-----2-----2-----|-----2-----2-----|
    b|---3-----3-----3-|---3-----3-----3-|
    g|-2-----2-----2---|-0-----0-----0---| (A esto le llamaré Fig.2)
    D|-----------------|-----------------|
    A|-----------------|-----------------|
    E|-----------------|-----------------|
    ------------------------------------------------------------------
    
    Intro:
    
  • +
    ¡Colabora con nosotros!
    Envíanos tu versión de esta canción

Letra de Que digo yo
Pre-coro:
Fig.1
Dentro de mi
Fig.1
hay tantas ganas de vivir
Fig.1
Dentro de ti
Fig.1
hay tantas ganas de sentir
Fig.1
Miras en mis ojos
Fig.1
me llevas a viajar donde no fui
Fig.1
Tiendes tu mano
Fig.1
y me invitas a tu mundo descubrir
Fig.2
Fig.2
Que puedo volver a amar
Y que digo yo
si antes de que hablaras
se me estremecía la ilusión
Y que digo yo
si aun no he dicho nada
y en un beso llevas mi razón
=Aqui va de nuevo en Intro=
Fig.1
Dentro de mi
Fig.1
hay tanto amor vestido de paciencia
Fig.1
Dentro de ti
Fig.1
hay tanta tristeza, daño y tanta guerra.
Fig.1
Cierro bien tus ojos
Fig.1
e intento provocarte escalofríos
Fig.1
Entre esos nervios
Fig.1
que obligan a que quiera hacerte mío
Fig.2
Fig.2
Que puedes volver a amar
Y que digo yo
si antes de que hablaras
se me estremecía la ilusión
Y que digo yo
si aun no he dicho nada
y en un beso llevas mi razón
Sera que aún no te das cuenta
que te empiezo a enamorar
Será que aun no me doy cuenta
que algo acabas de empezar
Y que digo yo
si antes de que hablaras
se me estremecía la ilusión
Y que digo yo
si aun no he dicho nada
y en un beso llevas mi razón
Fig.1
Dentro de mi,
Fig.2-Fig.2-D
dentro de ti hay
Terminamos la canción con un bajeo en D, es decir, con bajeo en la
cuarta cuerda al aire.
Eso seria todo, espero que les sirva de algo.
Saludos!
Dudas, comentarios, sugerencias, agradecimientos o cualquier cosa a
balkirian_89@hotmail.com

Video de Que digo yo
[]




[Que digo yo chords][Que digo yo cifra]
© LaCuerda.net · aviso legal · privacidad · es · en · pt · contacto