Acordes de Guitarra » C »Chaqueño Palavecino » Mujer (Tab)
  • Letra y Acordes
    E||-----------------------------------------5--3--2--7--5--2--3---|
    B||---------------------------------------------------------------|
    G||---------------------------------------------------------------|
    D||---------------------------------5-4---4----2--1--6--4--1--2---|
    A||-0-1-2-0---------------0-2--2/7--------------------------------|
    E||---------3-2-3---0-2-3-----------------------------------------|
    
                                                    
    ----7---7--7--4--5--7--8--7--5--7--8----12---11---8---9--11--12---|
    ------------------------------------------------------------------|
    --7---7----7--4--5--7--9--7--5--7--9--12---11---9---9----11--12---|
    ------------------------------------------------------------------|
    ------------------------------------------------------------------|
    ------------------------------------------------------------------|
    
                                                                       
    -----------------------||
    -----------------------||
    -----------------------||
    -----------------------||
    
  • +
    ¡Colabora con nosotros!
    Envíanos tu versión de esta canción

Letra de Mujer
Por dónde andarás mujer
que nunca ti vuelto a ver
pero yo se, que has de volver
por estos pagos otra vez.
Al despedirte de mí
me has prómetido volver
a lo mejor estando aquí
no sufra mi corazón.
Estribillo
Ay! si pudiera saber
donde te puedo encontrar
para decirte, que también yo
jamás te podré olvidar.
Por más lejos que te vas
siempre me haré recordar

tu saber bien, que aquel amor
no se lo puede olvidar.
Si un día quieres volver
hay ser por una razón
a lo mejor, estando aquí
no sufra mi corazón.
Estribillo
*REPITE LOS DOS ÚLTIMOS VERSOS DE CADA ESTROFA.



© LaCuerda.net · aviso legal · privacidad · contacto
DINAMICO