Acordes de Guitarra » C »Los Changos » El anacleto del viento (Tab)

El anacleto del viento
Los Changos

  • Letra y Acordes
    Em               Am-Em
    Pobre anacleto cigarro
    Am             B7
    Ojitos de mariposa
    Em                  F#7
    No le quedo ni pa’l vino
    B7                 Em
    Pero le sobran las rosas
    D7                    G   C7        B-G       B7-Em
      No le queda ni pa’l vino Pero le sobran las rosas
    
    La chala de su cigarro
    Encendida desde el alba
    Cada pitada es un grito
    Que va consumiendo el alma
    
             E7       Am
      El es cantor bagualero
    F#7                  B7
      De aquí de ninguna parte
    
  • Letra y Acordes
    Em               D  Em  E7
     Pobre anacleto cigarro
      Am             B7
     ojitos de mariposa
     Em                  F#7
     no le queda ni pal vino
     B7                   Em  E7
     pero le sobran las rosas
     D                   G   C
     no le queda ni pal vino
              B7          Em
     pero le sobran las rosas
    
    
     La chala de su cigarro
     encendida desde el alba
     [cada pitada es un grito
     que va consumiendo en alma]
    
    
    
  • Tablatura
    1-------------------------------------------------------------
    2----5--7-8br--7--5-----------------------5-------------------
    3-------------------------4-4-4-4-4-----6---------4-4-4-4-4---
    4-------------------------------------------------------------
    5----3--5-7br--5--3-------------------------------------------
    6----------------------3-------------5--------3--------------
    
    1--------------I----------------0------------
    2--------------I-----------0---------0-------
    3-------2--4---I---------0---0-----0---0-----
    4--------------I-------2---------------------
    5----2---------I-----2-----------------------
    6--------------I---0-------------------------
    
    
    
    1------------------------------------------------------------
    2----5--7-8br--7--5-----------------------5-----------------
    3-----------------------4-4-4-4-4-----6----------4-4-4-4-4---
    4------------------------------------------------------------
    
  • +
    ¡Colabora con nosotros!
    Envíanos tu versión de esta canción

Letra de El anacleto del viento
Pobre anacleto cigarro
Ojitos de mariposa
No le quedo ni pa’l vino
Pero le sobran las rosas
No le queda ni pa’l vino Pero le sobran las rosas
La chala de su cigarro
Encendida desde el alba
Cada pitada es un grito
Que va consumiendo el alma
El es cantor bagualero
De aquí de ninguna parte
Pero le salta el bayisto
Si le canta a cafayate
Pero le salta el bayisto
Si le canta a cafayate
El anacleto es el viento
Paridor de desventura
Le soplan aires de muerte
Camino de la angostura
Con su sombrero azabache
Retoba’o como su dueño
Le van saliendo las coplas
Como si fueran de un sueño.
Como siempre acordes básicos para tremenda ZAMBA
los changos la cantan...sin palabras!!!! GROSOS!!!



© LaCuerda.net · aviso legal · privacidad · contacto