Acordes de Guitarra » C »El Cartel de Santa » La pelotona (Tab)
  • Letra y Acordes
    --------------------------------------
    --------0----------------0-------1-0--
    ------4---------0-----2-------2------- Se repite 2 veces
    --4/5-----5---2---2/4-------1---------
    ------------3-------------2-----------
    --------------------------------------
    
    Em
    Viajo en silencio y no expreso sentimientos
    B7
    Pero tu bien sabes que te llevo aquí adentro
    Em
    cuando llega la noche y es la hora de partir
    B7
    volviendo tu silueta alejándose de mi
    Em
    un profundo sentimiento se apodera de mi cuerpo
    B7
    y es que si no estoy contigo es como si estuviera muerto
    Em
    
  • Letra y Acordes
    --------------------------------------
    --------0----------------0-------1-0--
    ------4---------0-----2-------2------- Se repite 2 veces
    --4/5-----5---2---2/4-------1---------
    ------------3-------------2-----------
    --------------------------------------
    
    Em                       C
    Viajo en silencio y no expreso sentimientos
    Am                     B7
    Pero tu bien sabes que te llevo aquí adentro
    Em                            C
    cuando llega la noche y es la hora de partir
    Am                       B7
    volviendo tu silueta alejándose de mi
    Em                       C
    un profundo sentimiento se apodera de mi cuerpo
    Am                     B7
    y es que si no estoy contigo es como si estuviera muerto
    Em                       C
    
  • Tablatura
    Que onda! esta es mi primera transcripción, la subí ya que algunas
    de las que hay tienen algunos errores, sinceramente esta tab suena
    casi casi igual que la original saludos!!
    
    Notación:
    Ej.
    A(x2)=la parte A se repite 2 veces
    
    INTRO
    (1)E---------------------------------------
    (2)B--------0-----------------0-----1-0----
    (3)G------4-----------0-----2------2------- A(x2)
    (4)D--4/5-----5------2---2/4-----1---------
    (5)A---------------3------------2----------
    (6)E---------------------------------------
    
          VIAJO EN SILENCIO…
    (1)E--------0--------------------------
    (2)B----------0--------------0-----1-0-
    (3)G------4----------0-----2------2---- B(x7)
    (4)D--4/5----------2---2/4------1------
    (5)A-------------3-------------2-------
    (6)E-----------------------------------
    
                 …Y ME ELEVA AL FIRMAMENTO_ ERES LO MEJOR
    QUE EN LA VIDA ME A PASADO…
    (1)E--------0-----------------------------
    (2)B----------0--------------0-----1/3--1-
    (3)G------4---------0-----2------2—2----2- C(x2)
    
  • Tablatura
    La guitarra se afina standard e,a,d,g,b,e
    Intro:
    Se repite 2 veces 
    E--------------------------------------
    B--------0---------------0-------1-0---
    G------4---------0-----2-------2------- 
    D--4/5-----5---2---3/4-------1---------
    A------------3-------------2-----------
    E--------------------------------------
    
    Verso:
    Se repite 7 veces
    E--------------------------------------
    B--------5---------------0-------1-0---
    G------4---4-----0-----2-------2------- 
    D--4/5---------2---3/4-------1---------
    A------------3-------------2-----------
    E--------------------------------------
    
    E--------------------------------------------
    B--------5---------------0-------3-1h3p1-0---
    G------4---4-----0-----2-------2------------- 
    D--4/5---------2---3/4-------1---------------
    A------------3-------------2-----------------
    E--------------------------------------------
    
    
    E--------------------------------------------
    B------0--------------0-------3-1h3p1-0------
    G----4-------0------2--
  • Tablatura
    que tal bros!!! esta es mi segunda colaboracion (se q ya hay
    otras de esta cancion) les traigo esta rola del cartel de santa
    q la neta esta bien chida, se las dejo en tablatura "completa"
    para quines como yo no sabemos muy bien los acordes.
    No esta muy dificil, se las recomiendo
    Espero les agrade!!!!
    
    los acordes q se utilizan desde el verso son:
     em y b7(con variacion)
    
    Intro
    
     (1)E--------------------------------------
     (2)B--------0---------------0-------1-0---
     (3)G------4---------0-----2-------2------- ( x2 )
     (4)D--4/5-----5---2---2/4-------1---------
     (5)A------------3-------------2-----------
     (6)E--------------------------------------
    
     Verso
    
     Viajo en silencio y no expreso……………
    E--------0-----------------------------
    B----------0------0-------0-------1-0--
    G------0--------0-------2-------2------
    D-------------2-----0/1-------1-------- ( x7)
    A—0/2-----------------------2----------
    E--------------------------------------
    
     Precoro
    
     Eres lo mejor q en (al final del prime
  • +
    ¡Colabora con nosotros!
    Envíanos tu versión de esta canción

Letra de La pelotona
Viajo en silencio y no expreso sentimientos
Pero tu bien sabes que te llevo aquí adentro
cuando llega la noche y es la hora de partir
volviendo tu silueta alejándose de mi
un profundo sentimiento se apodera de mi cuerpo
y es que si no estoy contigo es como si estuviera muerto
tristezas se apoderan de mi mente y de mi alma
porque sólo a tu lado puedo conocer la calma
se tiene mucho el tiempo que no estas tu conmigo
pero me parece eterno y me pierdo en el olvido
el viento me acaricia y me recuerda a tus manos
la brisa de la noche me hace pensar en tus labios
el brillo de la luna es igual al de tus ojos,
sabes que sin ti tan sólo soy un despojo
y aqui sobres mi cama el aroma de tu cuerpo
que me mantiene vivo y me leva al firmamento
PRECORO:
eres lo mejor que en mi vida ha pasado
te juro pierdo el rumbo cuando no estás a mi lado
el viento me repite, tu nombre a cada instante
la brisa de la noche me recuerda lo distante
que se encuentran tus labios y yo sigo aquí
o u o u o u o u ooh
cuando estoy contigo cada día es alegría
pero lejos de ti me sumerjo en la agonía
del recuerdo de tus besos y el sabor de tu saliva
despierto en las madrugadas y abrazo una pinche almohada,
deseando fueras tu la que comparte mi cama
te juro que estremezco cuando no estás tu conmigo
quisiera mandarle al tiempo poder hacer eternos
todos los momentos en que me levas al cielo
mi vida es codiciada, muchos quieren mi cabeza
la verdad no me preocupa si la muerte se atraviesa
con tal de estar contigo juro resucitaría
para estar a tu lado lo que te resta de vida
PRECORO:
eres lo mejor que en mi vida ha pasado
te juro pierdo el rumbo cuando no estás a mi lado
el viento me repite, tu nombre a cada instante
la brisa de la noche me recuerda lo distante
que se encuentran tus labios y yo sigo aquí
o u o u o u o u ooh
o u o u o u o u ooh
FINAL
Esta cancion se la dedico nuevamente a mariana, como kero a esa niña ;)
cualquier duda o sugerencia: cybermikeld@hotmail.com



© LaCuerda.net · aviso legal · privacidad · contacto
DINAMICO