Acordes de Guitarra » C »Carmen Boza » La vida moderna (Tab)

La vida moderna
Carmen Boza

Letras, Notas, Punteos, Tablaturas y Acordes de Guitarra (Tabs & Chords)

  • Letra y Acordes
    Em    = 0 2 2 0 0 x
    G     = 3 2 0 0 1 x
    Asus4 = x 0 2 2 3 x  (Para los acordes de la intro y la estrofa
    Am    = x 0 2 2 1 x         no utilizo la primera cuerda)
    Asus2 = x 0 2 2 0 x
    
    Am = x 0 2 2 1 0
    Bm = x 2 4 4 3 2     (Puente y estribillo)
    F  = 1 3 3 2 1 1
    Em = 0 2 2 0 0 0
    D  = x x 0 2 3 2
    
    
        Para coger el tempo del riff de entrada es mejor
        practicar con los golpes de voz de la estrofa,
        sobre todo para los cambios rápidos del final. El patrón
        es el mismo.
    
    
    [Em]        [G]
    
  • Tablatura
    e|-------x-----------x-----------x---------------------------|
    B|-------x-----------x-----------x---------------------------|
    G|-------x-----------x-----------x------5-7-4-5--------------|  x2
    D|-------x-----------x-----------x-9----7-9-5-5--------------|
    A|-5h7p5-x-9---5h7p5-x-10--------x---10----------------------|
    E|-------x-8---------x-8---5h7p5-x-8-8-----------------------|
    
    
    
    [Verse]
    
    Dile que no quiero jugar...
    e|-------x-----------x-----------x------------------------------|
    B|-------x-----------x-----------x------------------------------|
    G|-------x-----------x-----------x------5-7-4-5-----------------|  x4
    D|-------x-----------x-----------x-9----7-9-5-5-----------------|
    A|-5h7p5-x-9---5h7p5-x-10--------x---10-------------------------|
    E|-------x-8---------x-8---5h7p5-x-8-8--------------------------|
    
    
    
  • +
    ¡Colabora con nosotros!
    Envíanos tu versión de esta canción

Letra de La vida moderna
Para coger el tempo del riff de entrada es mejor
practicar con los golpes de voz de la estrofa,
sobre todo para los cambios rápidos del final. El patrón
es el mismo.
Dile que no
quiero jugar,
que siempre me to - ca el mis - mo - pa - pel. Asus2 y Am antes
de golpear Am)
Lo que pasó
ya no será más,
que el miedo no ma - te al rit - mo es - ta - vez.
(Mismo patrón)
Quiero gritar pero no sé bien qué,
la vida moderna es triste
¿Qué quedará de mi?
¿Qué quedará de todo lo que te quise?
Una decepción es cuando no te lo esperas
Yo ya no me espero apenas
Morirá mi flor y nacerán otras nuevas
Toca repetir escena
Sé sincera, eres como eres, no como te gustaría ser
Mantente entera, entiende quién eres,
lucha por lo que quieres tener
(A partir de aquí todo es repetición.
El riff de entrada se repite en las estrofas
y el puente y el estribillo permanecen igual).
A todo copón por la general
A pique de un repique
Clavo las uñas en otra verdad
Para mantenerme a flote
Pienso que nada tiende a perdurar
Yo sé que no estoy mintiendo
Y me da igual, ¿no ves que me da igual?
Ni sé lo que estoy diciendo
Una decepción es cuando no te lo esperas
Yo ya no me espero apenas
Morirá mi flor y nacerán otras nuevas
Toca repetir escena
Sé sincera, eres como eres
No como te gustaría ser
Mantente entera, entiende quien eres
Lucha por lo que quieres tener
Sé sincera, eres como eres
No como te gustaría ser
Mantente entera, entiende quien eres
Lucha por lo que quieres tener

[ver todas las canciones]


© LaCuerda.net · Aviso Legal · Privacidad