Acordes de Guitarra » C »Carlos Ramón Fernández » Yo vi llorar al doctor (Tab)

Yo vi llorar al doctor
Carlos Ramón Fernández

Letras, Acordes y Tabs para Guitarra, Bajo y Ukulele

  • Fm C7 Fm C7 Fm Db Bm C7 Fm
    Intro
    
    Fm
    que en una tarde cualquiera,
                    Fm7
    quisas una primavera,
                         C7
    cuando conosi a un señor
                           Bm
    en la ciudad de OLAVARRIA
                       C7
    fue justamente ese dia
                       Fm
    yo vi llorar al doctor
    
    justamente al atenderme
    fue alguien que por telefono
    al profecional llamo
    una mujer que le hablaba
    
  •   Em                 B7                       Em
    
    1|------------5----------------------7-----------------5----------
    2|---5-7-8-7-8-8-7-5-4---5-7-11-10-11-11-9-8-5---5-7-8-7-8-8-7-5-4
    3|-4--------------------4---------------------4-------------------
    4|----------------------------------------------------------------
    5|----------------------------------------------------------------
    6|----------------------------------------------------------------
    
      B7                   Em
    1|------------7------------|
    2|---5-7-11-10-11-11-9-8-5-|
    3|-4------------------------|
               C       Am       B7              Em
    1|----------0--0-----0--0----2--2------2/9-9-8-6--------------------|
    2|-5-7-8-8---1--1-----1--1----0--0----0---------9-8-6---------------|
    3|------------0--0-----2--2----2--2--2-----------------4-4-4-2-0----|
    4|--------------------------------------------------------------4-2-|
    5|---------3-------0--------2---------------------------------------|
    6|------------------------------------------------------------------|
    
  • +
    ¡Colabora con nosotros!
    Envíanos tu versión de esta canción

Letra de Yo vi llorar al doctor
que en una tarde cualquiera,
quisas una primavera,
cuando conosi a un señor
en la ciudad de OLAVARRIA
fue justamente ese dia
yo vi llorar al doctor
justamente al atenderme
fue alguien que por telefono
al profecional llamo
una mujer que le hablaba
tristemente le contaba
que su esposo fallesio
pero que le agradecia
por lo que hizo dia a dia
por ese hombre que amo
y que por su cirugia
muchos años de alegria
al lado del compartio
el doctor que simplemente
demostrando ser muy fuerte
dijo es mi oligacion
me di cuenta que fingia
y que por dentro sentia
una profunda emocion
Musica
yo que tenia esa imagen
quisas como tienen tantos
del medico y su profesion
que los veia tan fuerte
que ha veces la misma muerte
no le arranca un lagrimon
me di cuenta en ese dia
que todo no es alegria
que es dura esa profesion
que aunque no se ve por fuera
al pasar esa frontera
adentro hay un corazon
gracias doctor Bebilacua
tanto y tanto cirujano
habra como usted señor
me emociono con su llanto
la bandera de mi canto
he levantado en su honor
pero en un momento dado
se levanto de mi lado
y con un dolor notorio
fue al rincon del consultorio
yo vi llorar al doctor.




[Yo vi llorar al doctor chords][Yo vi llorar al doctor cifra]
© LaCuerda.net · aviso legal · privacidad · es · en · pt · contacto