Acordes de Guitarra » C »Carajo » Como debería ser (Tab)

Como debería ser
Carajo

  • Tablatura
    C-------------------------------------
    G-------------------------------------------------
    Eb----------------------------------------------
    Bb-------------------------------------------------
    F---022-x-022-x-022--5-7-3---022222...--5--7--3------
    Bb--022-x-022-x-022--5-7-3---022222...--5--7--3-------------
    
    pm                            ........
    
    riff1
    C-----------------------------*------------------
    G-----------------------------*--------------------
    Eb----------------------------*------------------
    Bb-------------------------X3-*-----------------
    F---022-x-022-x-022--5-7-3----*-022-022-022--5-7-3----------
    Bb--022-x-022-x-022--5-7-3----*-022-022-022--5-7-3----------
    
    verso
    riff2
    C----------------------------------------------
    
  • Tablatura
    1-C
    2-G
    3-Eb
    4-Bb
    5-F
    6-Bb
    
    Intro:
    |--------------------------------------------------|
    |--------------------------------------------------|
    |--------------------------------------------------|
    |--------------------------------------------------|
    |0-2-2-X-X-0-2-2-X-X-0-2-2-X-X-5-7-5----------5-7-5|
    |0-2-2-X-X-0-2-2-X-X-0-2-2-X-X-5-7-5--2/14/2--5-7-5|
                                          .  . .
    Riff 1:
    |------------------------------------|    |--------------------------|
    |------------------------------------|    |--------------------------|
    |------------------------------------|    |--------------------------|
    |------------------------------------| X3 |--------------------------|
    
  • Tablatura
    E]C
    B]G
    G]Eb
    D]Bb
    A]F
    E]Bb
    
    Intro
    C-------------------------------------
    G-------------------------------------------------
    Eb----------------------------------------------
    Bb-------------------------------------------------
    F---022-x-022-x-022--5-7-3---022222...--5--7--3------
    Bb--022-x-022-x-022--5-7-3---022222...--5--7--3-------------
    pm                            ........
    
    (Riff 1)
    C-----------------------------*------------------
    G-----------------------------*--------------------
    Eb----------------------------*------------------
    
  • +
    ¡Colabora con nosotros!
    Envíanos tu versión de esta canción

Letra de Como debería ser
pm ........
riff1
verso
riff2
pm .... .. ... .. ... .. ...
riff 3
riff4
riff1 x4
estribillo
verso2=ver1
estribillo2
interludio
pm ......
estribillo acustico
estrbillo final
final



© LaCuerda.net · aviso legal · privacidad · contacto
DINAMICO