Acordes de Guitarra » C »Caos » La Planta (Tab)

La Planta
Caos

Letras, Acordes y Tabs para Guitarra, Bajo y Ukulele

  • Em                                      C
    Si tu piensas que me has roto la maceta
                    D                           Em
    no te preocupes, ya me acostumbre a regarla,
                                             C
    que ya te me estabas pasando de verde,
                   D
    mañana te secas, yo me consigo otra
    Em
    planta.
    
                        C         D           Em
    Pero que sea desertica, oh si, desertica
    
                   C              D
    asi si la riego no, no me preocupo
              G       D   Em
    porque va a estar muy bien
                    C              D
    asi si la riego no, ya no me apuro como
    
  • Em                                 C
    si tu piensas que me has roto la maseta
                 B                       Em
    no te preocupes ya me acostumbre a regarla
                                   C
    y ya te me estabas pasando de verde
                    B
    mañana te secas yo me consigo otra planta
    
                   C          D         Em
    pero que sea decertica oh si desertica//
    
                    C              D
    asi si la riego no, no me preocupo
                G   D/F#  Em
    porque va estar muy bien
                    C              D
    asi si la riego no, ya no me apuro
                      G   D/F#  Em
    como la regue contigo
    
  • Dm                                      Bb
    Si tu piensas que me has roto la maceta
                    C                           Dm
    no te preocupes, ya me acostumbre a regarla,
                                             Bb
    que ya te me estabas pasando de verde,
                   C
    mañana te secas, yo me consigo otra
    Dm
    planta.
    
                        Bb         C           Dm
    Pero que sea desertica, oh si, desertica
                        Bb         C           Dm
    Pero que sea desertica, oh si, desertica
                   Bb              C
    asi si la riego no, no me preocupo
              F       C   Dm
    porque va a estar muy bien
                    Bb              C
    
  • Em*  x22033
    C*   x32033
    D/F# 200232
    
    Em*                                    C*
    Si tu piensas que me has roto la maceta
                    D                         Em*
    no te preocupes, ya me acostumbre a regarla,
                                          C*
    que ya te me estabas pasando de verde,
                   D
    mañana te secas, yo me consigo otra
    Em*
    planta.
    
                        C*       D           Em*
    Pero que sea desertica, oh si, desertica
    
                   C*              D
    asi si la riego no, no me preocupo
    
  •     C   D   G D Em
    e|--------------------|
    B|--------------------|
    G|--5---7-----5-------|
    D|--5---7---5-5-2-----|
    A|--3---5---5-3-2-----|
    E|----------3---0-----|
    
    
    El solo (En mi pedalera yo utilizo el efecto que se llama 
    'WAH+DO', ustedes pueden utilizar cualquier tipo de 'WAH-WAH'.  
    ¡Es mas! Aunque no lo utilizen se oye bien, 
    pero se pierde la esencia de la canción):
    
    e|-----7-------------10s12bñr-----10h12-10----------|
    B|--5s8--10p8-10-8----------------------------7s8-8-|
    G|--------------------------------------------------|
    D|--------------------------------------------------|
    A|--------------------------------------------------|
    E|--------------------------------------------------|
    
  • B  = Bend
    r  = Release
    h  = Hammer
    br = Vibrar
    
    Intro
    Em                                       C
      Si tu piensas que me haz roto la maceta,
                      D                           Em
      no te preocupes, ya me acostumbré a regarla.
     
                                          C 
      Y ya te me estabas pasando de verde,
                     D                           Em
      mañana te secas, yo me consigo otra planta.
    
    
    VERSO 1
                    C           D Dsus4 D    Em Esus4 Em
    Pero que sea desértica, oh si,        desértica,
    
  • Hay que prestar atencion a los tiempos que tiene el bajo
    ya que varia de compas en compas...
    
      Intro
      Em    C      D    Em      C    B7      Em  
    G|------------|------------|------------|------------|
    D|2-----------|-----2------|------------|2-----------|
    A|------3-----|5-----210---|3----2------|--2-1-0-----|
    E|------------|---------320|------------|-------3-2-0|
    
     Pero que sea desertica...x2
         C         D            Em
    G|------------|------------|-----------------|
    D|-----2---5--|---4---7----|2-------2--------|
    A|15s3--------|5-----------|-210-----210-----|
    E|------------|------------|----320-----320--|
    
     Asi si la riego no...x2
      C            D            G     D      Em
    G|------------|------------|------------|-----------|
    D|------------|------------|5555--4444--|2222222----|
    A|3-33-33-33-3|5-55-55-55-5|------------|--------5--|
    E|------------|------------|------------|-----------|
    
      Y que un solo jardinero...
      C     D      G     D      Em       C   B
  •        
          
       Colaboracion de Manuel de Jesus Guel 
       meme3@mexico.com 
       
       Banda:Caos
       Cansio:La Planta
    
         
        
    Denjenme desirles que soy amigo del bajista de caos y me 
    paso esta rola original
    
    Intro
    
    2 veces
    G--------------------
    D--------------------
    A-----3---2----------
    E-0-----------0------  
        
    Pero que sea desertica oh si.... x2
    
    G------------------------------------------------------------------
    D------------5-------------7-----------------------2---------------
    A---3----7-------5-----9-------7-----3-2-0------------3-2----------
    E-------------------------------------------3-2-0----------3-2-0---
    
    Asi si la riego o no, no me preocupo...... x2
    
    G-----------------------------------------------
    D-----------------------------------------------
    A-33333333--5555555-----------------------------
    E----------------------3-33--2-22--0--0-0-0-00--
    
    Y que un solo jardinero recoja el fruto.....
    
    G------------------------------------------
  • Intro
    C |------------x---|
    S |------------o---|
    B |-----------d----|
       1 + 2 + 3 + 4 +
    
    Pero que sea desiertica... oh si
    C |----------------|----------------|----------------|------------s---|
    H |x-x-x-x-x-x-x-x-|x-x-x-x-x-x-x-x-|x-x-x-x-x-x-x-x-|x-x-x-x-x-x---x-|
    S |----o-------o---|----o-------o---|----o-------o---|----o-------o---|
    B |o-----o-o-------|o-----o-o-------|o-------o-o-----|o-------o-oo--o-|
       1 + 2 + 3 + 4 +  1 + 2 + 3 + 4 +  1 + 2 + 3 + 4 +  1 + 2 + 3 + 4 +
    
    C |x---------------|----------------|----------------|----------------|
    H |--x-x-x-x-x-x-x-|x-x-x-x-x-x-x-x-|x-x-x-x-x-x-x-x-|x-x-x-x-x-x-x-x-|
    T1|----------------|----------------|----------------|---oo-----------|
    T2|----------------|----------------|----------------|------o---o-o---|
    S |----o-------o---|----o-------o---|----o-------o---|----------------|
    F |----------------|----------------|----------------|--------------o-|
    B |o-----o-o-------|o-----o-o-------|o-------o-o-----|o-o-----------
  • +
    ¡Colabora con nosotros!
    Envíanos tu versión de esta canción

Letra de La Planta
Si tu piensas que me has roto la maceta
no te preocupes, ya me acostumbre a regarla,
que ya te me estabas pasando de verde,
mañana te secas, yo me consigo otra
planta.
Pero que sea desertica, oh si, desertica
asi si la riego no, no me preocupo
porque va a estar muy bien
asi si la riego no, ya no me apuro como
la regue contigo.
Y que un solo jardinero recoja el fruto,
no como tu que ya estabas recogida,
y si es que otro se anima, pues buena
suerte haber si no se espina.
Y te pareces tanto amor,
a una enredadera,
que en cualquier tronco te atoras y le
das vueltas,
con tus ramitas que se enredan donde quiera
y entre tanto ramerio, ya te apodamos la ramera.
Y que un solo jardinero recoja el fruto,
no como tu que ya estabas recogida,
y si es que otro se anima, pues buena
suerte haber si no se espina.
Y te pareces tanto amor,
a una enredadera,
que en cualquier tronco te atoras y le
das vueltas,
con tus ramitas que se enredan donde quiera
y entre tanto ramerio, ya te apodamos la ramera.
Pero que sea desertica oh si
desertica,
pero que sea desertica, oh si
desertica.




[La Planta chords][La Planta cifra]
© LaCuerda.net · aviso legal · privacidad · es · en · pt · contacto