Acordes de Guitarra » C »Los Cantores del Alba » Para mi Salta linda (Tab)

Para mi Salta linda
Los Cantores del Alba

Letras, Acordes y Tabs para Guitarra, Bajo y Ukulele

  • e|--3s7--6--7--8---7-----7s12--11--12--13--12-----2--2--3--5--7--5--7--|
    B|--5s8--7--8--10--8-----8s13--12--13--15--13-----4--4--5--7--8--7--8--|
    G|---------------------------------------------------------------------|
    D|---------------------------------------------------------------------|
    A|---------------------------------------------------------------------|
    E|---------------------------------------------------------------------|
    
    e|--------------------------0--------------0-----0--------------0--------|
    B|--0--0--1--0-----0-----5-----6--5--4--5--------------------------------|
    G|--------------3-----------------------------------0--2--0--------------|
    D|--------------------------------------------4--------------4--------2--|
    A|-----------------------------------------------------------------------|
    E|-----------------------------------------------------------------0-----|
    
    e|--------------2--|
    B|-----------0-----|
    G|--------2--------|
    D|-----0-----------|
    A|-----------------|
    E|--2--------------|
    
  • +
    ¡Colabora con nosotros!
    Envíanos tu versión de esta canción

Letra de Para mi Salta linda
[1] arrangement
E|--2--3--|
Que bonito volver a mi ciudad
a cantar y bailar
cerros verdes cielo alegre para enamorar
que bonito volver a mi ciudad
a cantar y bailar pa'l carnaval
Hasta el viento mi poncho llevará
un farol colonial
campanario de mi tierra meta repicar
que bonito volver a mi ciudad
y sentir el perfume de la sal
Guitarrero salteño
traigo mis sueños y nada más
sin la coca mi boca llorará
y su llanto sin la copla quedará
sin la coca mi boca llorará
y su llanto sin la copla quedará
Cuanto tiempo ha tenido que pasar
pa' volver a encontrar
tamaleras a caballo lento el bagualear
que bonito volver a mi ciudad
y encontrar sus costumbres sin igual
Por las tardes se empieza a guitarrear
cuando el sol ya se va
los coyuyos sobre el molle cantan sin parar
que bonito volver a mi ciudad
cuando el sol ya comienza a agonizar
Guitarrero salteño
traigo mis sueños y nada más
sin la coca mi boca llorará
y su llanto sin la copla quedará
sin la coca mi boca llorará
y su llanto sin la copla quedará




[Para mi Salta linda chords][Para mi Salta linda cifra]
© LaCuerda.net · aviso legal · privacidad · es · en · pt · contacto
DINAMICO