Acordes de Guitarra » C »Los Cantores del Alba » Carpas de salta (Tab)

Carpas de salta
Los Cantores del Alba

Letras, Acordes y Tabs para Guitarra, Bajo y Ukulele

  •   A7        Dm       G             C
    Carpas de Salta, las vuelvo a recordar,
    Am             Em                   Am
    bandoneón y guitarra, zambas para bailar.(bis)
    
    Chicha y aloja, vinito pa’ tomar,
    ramas de albahaca verde, olor a Carnaval.(bis)
    
    Est.
     G7              C             G7           C
    Carpas de La Silleta, Campo Quijano y La Merced.
    Am              Em                     Am
    Toda Salta de fiesta ¿quién pudiera volver?(Bis)
    
    INTRO
    
    Agua florida, harina pa’ jugar
    canastillas de flores, todo pa’l Carnaval.(Bis)
    
    Ella es alegres, airosas a bailar,
    
  • E|--0-----5--4--5----------8--7--8--------8--8--10--8--7-----4-----5--4--5--
    B|--------------------------------------------------------------------------
    G|-----5-----4--5-----5s9-----7--9-----9--------10--9--7-----4--5-----4--5--
    D|--------------------------------------------------------------------------
    A|--------------------------------------------------------------------------
    E|--------------------------------------------------------------------------
    
    E|--0-----5-----5--4--5----------8-----8--7--8--------8--8--10--8--7-----4--5--
    B|-----------------------------------------------------------------------------
    G|-----5-----5-----4--5-----5s9-----9-----7--9-----9--------10--9--7-----4--5--
    D|-----------------------------------------------------------------------------
    A|-----------------------------------------------------------------------------
    E|-----------------------------------------------------------------------------
    
    E|--------------------------
    B|--------------------------
    G|-----1-----2-----1-----2--
    D|--------------------------
    A|--------0-----------0-----
    E|--0-----------0-----------
    
  • LAm               DO           MI7             LAm
    E|----5--5--4--5--8--8--7--8---8--8--10--8--7--5--5--4--5--
    B|---------------------------------------------------------
    G|-5--5--5--4--5--9--9--8--9---9--9--9---9--8--5--5--4--5--
    D|---------------------------------------------------------
    A|---------------------------------------------------------
    E|---------------------------------------------------------
    
    LAm               DO           MI7           LAm  MI7-LAm
    E|----5--5--4--5--8--8--7--8---8--8--10--8--7--4--5--
    B|---------------------------------------------------
    G|-5--5--5--4--5--9--9--8--9---9--9--9---9--8--4--5--
    D|---------------------------------------------------
    A|---------------------------------------------------
    E|---------------------------------------------------
    
    En la version de Los Cantores del Alba,
    una guitarra hace el agudo y otra el grave, aca esta el grave
    
    LAm             DO           MI7            LAm
    
  • +
    ¡Colabora con nosotros!
    Envíanos tu versión de esta canción

Letra de Carpas de salta
Carpas de Salta, las vuelvo a recordar,
bandoneón y guitarra, zambas para bailar.(bis)
Chicha y aloja, vinito pa’ tomar,
ramas de albahaca verde, olor a Carnaval.(bis)
Est.
Carpas de La Silleta, Campo Quijano y La Merced.
Toda Salta de fiesta ¿quién pudiera volver?(Bis)
Agua florida, harina pa’ jugar
canastillas de flores, todo pa’l Carnaval.(Bis)
Ella es alegres, airosas a bailar,
ellos se hacen mil hachas de tanto zapatear.(Bis)
Est.




[Carpas de salta chords][Carpas de salta cifra]
© LaCuerda.net · aviso legal · privacidad · es · en · pt · contacto