Acordes de Guitarra » C »Los cantores de Quilla Huasi » Zamba de la toldería (Tab)

Zamba de la toldería
Los cantores de Quilla Huasi

Letras, Acordes y Tabs para Guitarra, Bajo y Ukulele

  •    Em                G
    1|---------------|-----------------
    2|---0-------0---|-----3-------3---
    3|-----0---0---0-|-------4---4---4-
    4|-------2-------|---------5-------
    5|---------------|-0---------------
    6|-0-------------|---3-------------
    
    
      G             G               Em
    1|------------------------------|-----------------0-00------
    2|--3-------3-----------3-------|---------0-------0--00-----
    3|----4---4---4-------4---4-2-0-|-------0---2-0---0----00---
    4|------5-----------5-----------|-----2---------2-2------22-
    5|----------------5-------------|---2-------------2---------
    6|3-------------3---------------|-0---------------0---------
    
    
    
    Em
    
  • +
    ¡Colabora con nosotros!
    Envíanos tu versión de esta canción

Letra de Zamba de la toldería
Tristeza que se levanta
del fondo e las tradiciones
del toldo traigo esta zamba
como un retumbo e malo nes
del toldo traigo esta zamba
como un retumbo e malo nes
Como una nostalgia fuerte
de rancheria incendiada
de lanzas ,de boleadoras,
y de mujeres roba das.
de lanzas ,de bolea doras,
y de mujeres robadas.
Estribillo
Yo di mi sangre a la tierra
Arreglo 1
como el gaucho en los fortines
por eso mi zamba tiene
sonoridad de clari nes
por eso mi zamba tiene
sonoridad de clari nes
Estruendo de los malones
ardor en las tolderias
tostada de amores indios
cobriza es la tierra mi a
tostada de amores indios
cobriza es la tierra mi a
Avanzada de distancia
de largo tiempo sufrido
mi zamba viene avanzando
del toldo donde ha naci do.
mi zamba viene avan zando
del toldo donde ha naci do.
Estribillo
Tonos usados
1| 0 3 3 2 2 5
2| 0 0 3 3 4 5
3| 0 0 4 2 4 6
4| 2 0 5 0 4 5
5| 2 2 5 0 3 7
6| 0 3 3 0 3 5




[Zamba de la toldería chords][Zamba de la toldería cifra]
© LaCuerda.net · aviso legal · privacidad · es · en · pt · contacto
DINAMICO