Acordes de Guitarra » C »Canto 4 » La Trampa (Tab)

La Trampa
Canto 4

Letras, Acordes y Tabs para Guitarra, Bajo y Ukulele

  • Em - C - G - D
    
    Em
    Es un castigo y dulce la miel
    C                                   G
    Cuando tus ojos me hacen caer en la trampa,
            D
    Esa mirada.
    
    Em
    Vienes y vas no puedo escapar,
    C                                  G
    Inevitable fraude de estar en tu cielo
                  D
    Solo un momento.
    
    C                           G
    Voy como un ciego directo al sol
                             D
    A incendiarme con el calor
    
  • INTRO: Em - C - G - D
    
    PUNTEO
    
    e |-----------------7---7---8---8--7---7-------||
    B |-----------8-7-8---8-------8------8---------||
    G |----9-8-9-----------------------------------||
    D |--------------------------------------------||
    A |--------------------------------------------||
    E |--------------------------------------------||
    
    e |---------------7---7---8---8---10--10-------||
    B |---------8-7-8---8-------8-------12---------||
    G |---9-8-9------------------------------------||
    D |--------------------------------------------||
    A |--------------------------------------------||
    E |--------------------------------------------||
    
    e |--12/10--10--12-12/10--10--12-12/10--10--12-||
    B |-------12--12--------12--12--------12--12---||
    
  • +
    ¡Colabora con nosotros!
    Envíanos tu versión de esta canción

Letra de La Trampa
Es un castigo y dulce la miel
Cuando tus ojos me hacen caer en la trampa,
Esa mirada.
Vienes y vas no puedo escapar,
Inevitable fraude de estar en tu cielo
Voy como un ciego directo al sol
A incendiarme con el calor
Que tus besos me prestan para vivir, para sentir
Que soy, el que te hace morir de amor
Aunque sea imaginación
Del corazón.
_________________________________________
Estribillo
Es una trampa mortal tu piel
Que me enreda y me vuelve loco, loco, loco
Y aunque sé que tu amor yo jamás tendré
Por tu boca yo dejo todo, todo, todo.
__________________________________________
Sé que te tengo y no a la vez
Esta ironía que se me fue de las manos,
Todo un engaño.
Ya no me importa si no es verdad,
Si estás jugando cuando me das con un beso,
El universo.
Voy como un ciego directo al sol
A incendiarme con el calor
Que tus besos me prestan para vivir, para sentir
Que soy el que te hace morir de amor
Aunque sea imaginación
___________________________________________
Estribillo
Es una trampa mortal tu piel
Que me enreda y me vuelve loco, loco, loco
Y aunque sé que tu amor yo jamás tendré
Por tu boca yo dejo todo, todo, todo. X3




[La Trampa chords][La Trampa cifra]
© LaCuerda.net · aviso legal · privacidad · es · en · pt · contacto