Tablatura para Guitarra de Canciones Populares: Caña Dulce
Conexión · Inscripción
Letras y Acordes
Pantalla Completa
Imprimir
Versión Texto
Añadir Favorito
Otras Versiones

Mostrar Diagramas
Desfile Automático
Manipular Acordes
Formato del Texto


Canciones Populares
Caña Dulce(TAB)
calidad:
xxxx0051
AUTOR: Canciones Populares  corregir
ALBUM: desconocido
Enviado por Aydier
ESTA CANCION ES HERMOSA ESPERO QUE LA DISFRUTEN.

E|--0-2-3--0-2-3-5--2-3-5--2-3-5-7--|
B|----------------------------------|
G|----------------------------------|
D|----------------------------------|
A|----------------------------------|
E|----------------------------------|


E|--7-7-12-12-12-12-11-11-11--|
B|----------------------------|
G|----------------------------|
D|----------------------------|
A|----------------------------|
E|----------------------------|


E|--7-7-11-11-14-14-11-11-7-6-7-5-3-2-0--|
B|---------------------------------------|
G|---------------------------------------|
D|---------------------------------------|
A|---------------------------------------|
E|---------------------------------------|


E|--0-3-8-7--0-2------|
B|---------------5-4--|
G|--------------------|
D|--------------------|
A|--------------------|
E|--------------------|


E|--0-3-8-8-7-5-8-8-7-5-0-3--|
B|---------------------------|
G|---------------------------|
D|---------------------------|
A|---------------------------|
E|---------------------------|

E|--0-3-8-0-2-3------|
B|--------------4-3--|
G|-------------------|
D|-------------------|
A|-------------------|
E|-------------------|


E|--0-3-8-8-7-5-8-8-7-5-0-3--|
B|---------------------------|
G|---------------------------|
D|---------------------------|
A|---------------------------|
E|---------------------------|

HAY LE ACOMODAN UN POQUITO Y SALE...
Este fichero es trabajo propio de su transcriptor y representa su interpretación personal de la canción. El material contenido en esta página es
para exclusivo uso privado, por lo que se prohibe su reproducción o retransmisión, así como su uso para fines comerciales.
© LaCuerda.net · Aviso Legal · Privacidad