Acordes de Guitarra » C »Camilo Sesto » Quieres ser mi amante (Tab)

Quieres ser mi amante
Camilo Sesto

Letras, Acordes y Tabs para Guitarra, Bajo y Ukulele

  • Fm  C7  (2)
    
    Fm                                         C
    Decir te quiero decir amor no significa nada,
    Fm                                                                D#
    las palabras sinceras, las que tienen valor son las que salen del alma,
    Bbm          Fm    C7             Fm
    y en mi alma nacen, solo palabras blancas,
    Bbm              Fm    C7             Fm
    preguntas sin respuesta, llenas de esperanza.
    
    Fm                                         C
    Un amor como el mío no se puede ahogar como una piedra en un río,
    Fm                                                                D#
    un amor como el mío no se puede acabar ni estando lejos te olvido
    Bbm          Fm    C7             Fm
    y no se puede quemar porqué está hecho de fuego
    Bbm          Fm    C7             Fm
    ni perder ni ganar porque este amor no es un juego.
    
    
  • Fm                     Fm 
    Decir te quiero decir amor
                    C7 
     no significa nada
     Fm
    las palabras sinceras, las que tienen valor
                          Eb7
    son las que salen del alma
    Bbm7          Fm    C7             Fm
    y en mi alma nacen solo palabras blancas
     Bbm7              Fm    C7             Fm
    preguntas sin respuesta llenas de esperanza
    
    
    Un  amor como el mio no se puede ahogar como una 
                  C7
    piedra en un rio
       Fm
    un amor como el mio no se puede acabar ni estando
                Eb7  
    
  • Em    133111             Em#    133111                  Fm     133111
    B7    X35353             B7#    132313                  C7     X35353
    D7    XX1323             D7#    X11323                  Eb7    X11323
    Am    131211             Am#    113321                  Bbm    113321
    Am7   X13121             Am7#   X13121                  Bbm7   X13121
    Em7M  032110             Em7M#  132111                  Fm7M   132111
    E7    131211             E7#    131211                  F7     131211
    Cmaj7 X33121             Cmaj7# X33121                  C#maj7 X33121
    G     320003             G#     431114                  G#     466544
    
    
    Intro
    
        Fm                                      C7
     e]-------------------------------8--13-8---------------]
     B]---9-9-9--9-8--------8-9--9-11---------9-11--9-8-----]
     G]--------------10--10---------------------------------]
     D]-----------------------------------------------------]
     A]-----------------------------------------------------]
     E]-----------------------------------------------------]
    
  •      |    respecto A LA versión original    |
         |______________________________________|
    
    
    =INTRO=
    
       Em                                     B7
    E-----------------------------------12--------------
    B-----------------------------10-12---12--10--------
    G--9-11-12-12-11-9--9-11-12-12----------12---12-11--
    D---------------------------------------------------
    A---------------------------------------------------
    E---------------------------------------------------
    
       Em                                     B7
    E-----------------------------------12--------------
    B-----------------------------10-12---12--10--------
    G--9-11-12-12-11-9--9-11-12-12----------12---12-11--
    D---------------------------------------------------
    A---------------------------------------------------
    
  • +
    ¡Colabora con nosotros!
    Envíanos tu versión de esta canción

Letra de Quieres ser mi amante
Decir te quiero decir amor no significa nada,
las palabras sinceras, las que tienen valor son las que salen del alma,
y en mi alma nacen, solo palabras blancas,
preguntas sin respuesta, llenas de esperanza.
Un amor como el mío no se puede ahogar como una piedra en un río,
un amor como el mío no se puede acabar ni estando lejos te olvido
y no se puede quemar porqué está hecho de fuego
ni perder ni ganar porque este amor no es un juego.
Sueños que son amor,
son sueños que son dolor,
y yo necesito saber, si quieres ser mi amante.
Es bonito reír, amar y vivir… todo por alguien.
y si es preciso sufrir, llorar o morir por ese alguien
Yo necesito saber, si quieres ser mi amante,
yo necesito saber, si quieres ser mi amante.
Sueños que son amor,
son sueños que son dolor,
y yo necesito saber, si quieres ser mi amante.
********************Corregido por senkarol*************




[Quieres ser mi amante chords][Quieres ser mi amante cifra]
© LaCuerda.net · aviso legal · privacidad · es · en · pt · contacto