Acordes de Guitarra » C »Camilo Echeverri » Doble Filo (Tab)

Doble Filo
Camilo Echeverri

Letras, Acordes y Tabs para Guitarra, Bajo y Ukulele

  • |---------0-------0--------0-------0--
    |-------------------------------------
    |----1h2-----1h2-------1h2----1h2-----
    |-0------------------2----------------
    |-------------------------------------
    |-------------------------------------
    
    |--------0-------0---------0-------0--
    |-------------------------------------
    |---1h2-----1h2-------1h2-----1h2-----
    |-------------------------------------
    |-0-----------------4-----------------
    |-------------------------------------
    
    |---------0------0--------0--------0--
    |-------------------------------------
    |----1h2----1h2-------1h2-----1h2-----
    |-0----------------2------------------
    |-------------------------------------
    |-------------------------------------
    
  • |---------0-----0--------0-----0--------0-----0-------0-----0-----------
    |-------0-----0--------0-----0--------0-----0-------0-----0-------------
    |-----2-----2--------2-----2--------2-----2-------2-----2---------------
    |--0--------------2-----------------------------------------------------
    |--------------------------------0--------------4-----------------------
    |-----------------------------------------------------------------------
    
    
    
    |---------0-----0--------0-----0--------0-----0-------------------------
    |-------0-----0--------0-----0--------0-----0---------------------------
    |-----2-----2--------2-----2--------2-----2-----------------------------
    |--0--------------2--------------0---------------2----------------------
    |-----------------------------------------------------------------------
    |-----------------------------------------------------------------------
    
    
    
    Arpegio
    Desde el borde mi cama
    
  • +
    ¡Colabora con nosotros!
    Envíanos tu versión de esta canción

Letra de Doble Filo
Arpegio
Desde el borde mi cama
Caigo y vuelvo y despertar
Siento como el aire aprieta
Cada vez que quiero hablar
No puedo decirte nada
Que nos pueda lastimar
Porque se que el doble filo
Siempre ataca por detrás
Te quiero amar
Tengo miedo de cansarme de esperar
De quererte siempre cada día más
De sentir que no me puedo controlar
Te quiero dar
Más de lo que te puedas imaginar
Que estés en mis sueños y en mi realidad
Y tenerte aquí por siempre
Arpegio
Lo supe desde el comienzo
Te lo debo confesar
Equivocarme contigo
Siempre fue mi voluntad
Te quiero decir TE QUIERO
Y besarte de verdad
Pero se que el doble filo
Siempre ataca por detrás
Te quiero amar
Tengo miedo de cansarme de esperar
De quererte siempre cada día más
De sentir que no me puedo controlar ouuwwuooo...
Aunque no estás aquí,
Yo sigo pensando en ti
Pensando en el beso que te dí
Te quiero dar
Más de lo que te puedas imaginar
Que estés en mis sueños y en mi realidad
Y tenerte aquí por siempre... POR SIEMPRE...
Al final se acompaña con el arpegio del intro , termina en A4




[Doble Filo chords][Doble Filo cifra]
© LaCuerda.net · aviso legal · privacidad · es · en · pt · contacto