Letra y Acordes de Camila: Bésame
Conexión · Inscripción
Letras y Acordes
Pantalla Completa
Imprimir
Versión Texto
Añadir Favorito
Otras Versiones

Mostrar Diagramas
Desfile Automático
Manipular Acordes
Formato del Texto


Bésame

Camila

calidad:
cmla0311
AUTOR: Camila
ALBUM: Dejarte de amar (2010)
Enviado por xXJhaNXx
espero les sirva de ayuda cualquier consulta solo dejen sus mensajes aqui
https://www.facebook.com/jeancarlos.ma?ref=tn_tnmn

Empesemos:

EL capotraste va en el 2° traste

1/--3-----2------0-------------
2/----0-----0------0----3---0--
3/------0-----0------0----0----
4/-----------------------------
5/--3--------------------------
6/-----------------------------

1/--3-----2------0-------------
2/----0-----0------0-----3---0-
3/------0-----0------0-----0---           X4
4/-----------------------------
5/-----------------------------
6/--0--------------------------

1/------0-------------
2/----0--------0------
3/--0--------0--------
4/---------4------2---
5/--------------------
6/--------------------

cuando terminan todo vuelven a hacer lo mismo una ves mas

el intro se repite en la mayoria de la letra menos en los coros solo escuchen
la cancion y listo


C Em C Em Bésame a destiempo sin piedad y en silencio...
C Em C Em Bésame, frena el tiempo... has crecer lo que siento
Am Bm Em Bésame como si el mundo se acabara después,
Am Bm Em Bésame, y beso a beso por el cielo al revés,
Am B7 Em - Em/D - A Bésame sin razón, porque quiere el corazón,
C Bésame...
C Em C Em
C Em C Em9 [-- Arpegiado Siénteme en el viento, mientras yo muero lento...
C Em C Em Bésame sin motivos y estaré siempre contigo
Am Bm Em Bésame como si el mundo se acabara después
Am Bm Em Bésame, y beso a beso por el cielo al revés,
Am B7 Em - Em/D - A Bésame sin razón, porque quiere el corazón,
C Bésame...
C Em C Em Bésame...
Am Bm Em - E Bésame como si el mundo se acabara después,
Am Bm Em Bésame, y beso a beso por el cielo al revés,
Am B7 Em - Em/D - A Bésame sin razón, porque quiere el corazón,
C Bésame...
C Bésame así, sin compasión,
Em Quédate en mí sin condición,
Am D Dame tan sólo un motivo
C Em Y me quedo yo... y me quedo yo...
C Em9 Y me quedo yo... y me quedo yo... espero les haya servido cualquier consulta ya saven a donde escribirme gracias
Este fichero es trabajo propio de su transcriptor y representa su interpretación personal de la canción. El material contenido en esta página es
para exclusivo uso privado, por lo que se prohibe su reproducción o retransmisión, así como su uso para fines comerciales.

© LaCuerda.net · Aviso Legal · Privacidad