Tablatura para Guitarra de Camila: Bésame
Conexión · Inscripción
Letras y Acordes
Pantalla Completa
Imprimir
Versión Texto
Ańadir Favorito
Otras Versiones

Mostrar Diagramas
Desfile Automático
Manipular Acordes
Formato del Texto


Bésame(TAB)

Camila

calidad:
cmla0315
AUTOR: Camila
ALBUM: Dejarte de amar (2010)
Enviado por Erick
Mi primera colaboracion espero les guste.

PARTE PIANO EN GUITARRA:
-5------4------2------0----------5------4------2------------|
-----2------2------2------2----------2------2------2--5---2-|
---4------4------4------4----------4------4------4------4---|
-0-------------------------------4--------------------------|
------------------------------------------------------------|
------------------------------------------------------------|

-5------4------2------0----------------2------2-2--|
-----2------2------2------2---------2------2----2--|
---4------4------4------4--------2--------------2--|
-0---------------------------------------6------4--|
------------------------------------------------4--|
---------------------------------2--------------2--|

GUITARRA ELECTRICA:
----------7h9v---12h14------------------------------|
------9-10------------12h14-10/12---10-9h10p9-------|
-9h11-----------------------------------------9h11v-|
----------------------------------------------------|
----------------------------------------------------|
----------------------------------------------------|


D F#m D F#m Bésame ... a destiempo sin quedar y en silencio
D F#m D F#m bésame ... frena el tiempo has crecer lo que siento
Bm C#m F#m E Bésame como si el mundo se acabara despues
Bm C#m F#m E bésame y beso a beso por el cielo al revéz
Bm C#m F#m E B bésame sin razon porque quiere el corazón
D bésame ...
D F#m X2
D F#m Sientemé en el viento
D mientras yo
F#m muero lento
D F#m bésame sin motivo
D F#m y estare siempre contigo
Bm C#m F#m E bésame como si el mundo se acabara después
Bm C#m F#m E bésame y beso a beso pon el cielo al revés
Bm C#m F#m E B bésame sin razon porque quiere el corazón
D bésame...
D F#m X2
Bm C#m F#m E bésame como si el mundo se acabara después
Bm C#m F#m E bésame y beso a beso pon el cielo al revés
Bm C#m F#m E B bésame sin razon porque quiere el corazón
D bésame...
D bésame asi, sin compasión
F#m quedaTe en mi sin condición
Bm E dame tan solo un motivo
D F#m y me quedo yo (y me quedo yo)
D F#m y me quedo yo (y me quedo yo).
Este fichero es trabajo propio de su transcriptor y representa su interpretación personal de la canción. El material contenido en esta página es
para exclusivo uso privado, por lo que se prohibe su reproducción o retransmisión, así como su uso para fines comerciales.

© LaCuerda.net · Aviso Legal · Privacidad