Tablatura para Bajo de Callejeros: Sonando
Conexión · Inscripción
Letras y Acordes
Pantalla Completa
Imprimir
Versión Texto
Añadir Favorito
Otras Versiones

Mostrar Diagramas
Desfile Automático
Formato del Texto


Sonando(BAJ)

Callejeros

calidad:
call0114
AUTOR: Rogelio Santos
ALBUM: Sed (2001)
Enviado por Julio, basado en Gonzalo
Asi lo hago con la banda y suena tal cual el tema...

x=Muchas veces la misma nota
/=Arrastra
~=Queda sonando


INTRO
G|-----14-14-12-11----------------14-14-12-11-------12-12-10-9-------------
D|-12~-------------14-12-----12~-------------14-10~-----------12----12-----
A|----------------------------------------------------------------10----10-
E|-------------------------------------------------------------------------

VERSOS
G|--------------------------------------------------------------------
D|--------------------------7-5-4-----7-5-4---------------------------
A|-----2-3-5-----2-3-5--5-5-------5-5---------------------------------
E|-3—3-------3-3------------------------------------------------------

G|--------------------------------------------------------------------
D|-----2-3-5-----2-3-5----------------7-5-4---------------------------
A|-3-3-------3-3-----------2-3-5--5-5---------------------------------
E|---------------------3-3------------------3x------------------------


ESTRIBILLO
G|--------------------------------------------------------------------
D|-----2-3-5-----7-5-4-----7-5-4-------------------------------------- x3
A|-3-3-------5-5-------5-5--------------------------------------------
E|-------------------------------3x-----------------------------------
Porque esta vida...
G|--------------------------------------------------------------------
D|-----2-3-5-----7-5-4------------------------------------------------
A|-3-3-------5-5---------5--------------------------------------------
E|---------------------3---3~-----------------------------------------


Hay cuanta gloria...
G|--------------------------------------------------------------------
D|--------------------------------------------------------------------
A|-3-3---3-3---5-3-3---3-3--------------------------------------------
E|-----3-----3-------3------------------------------------------------

Cuanto necio...
G|---------------7x-9-7-----------------------------------------------
D|--2--------------------10-9-7-9-------------------------------------
A|----5-3x------------------------------------------------------------
E|-----------5x-------------------------------------------------------

FINAL 2:53
(Aca sigen tocando la misma nota en la que caen al terminar el estribillo)
G|--------------------------------------------------------------------
D|--------------------------------------------------------------------
A|-------5x-----5x------3-3-3-6-6-6----5------------------------------
E|-3x-5x-----3-5-----3~-------------3----3----------------------------


Un saludo a los pibes de tiempo de estar
en especial a polaa que me ayudo a sacar el tema =)
Este fichero es trabajo propio de su transcriptor y representa su interpretación personal de la canción. El material contenido en esta página es
para exclusivo uso privado, por lo que se prohibe su reproducción o retransmisión, así como su uso para fines comerciales.

© LaCuerda.net · Aviso Legal · Privacidad