Tablatura para Bajo de Callejeros: Sonando
Conexión · Inscripción
Letras y Acordes
Pantalla Completa
Imprimir
Versión Texto
Añadir Favorito
Otras Versiones

Mostrar Diagramas
Desfile Automático
Formato del Texto


Callejeros
Sonando(BAJ)
calidad:
call0113
AUTOR: Rogelio Santos
ALBUM: Sed (2001)
Enviado por Gonzalo
Esta es una propia corrección del tema. Le hice algunas modificaciones.
Ahora esta joya.


INTRO
G|--------------------------------------------------------------------
D|-------19-19-17-16----------19-19-17-16----10--17-17-15-14---9-7-5--
A|---17~-------------17----17~------------17-----------------15-------
E|----------------------15~-------------------------------------------

VERSO
G|--------------------------------------------------------------------
D|---------------------------------7-5-4---------7-5-4---------------- x2
A|--------2-----------2--5---5-5-5-------5-5---5----------------------
E|-3—-3-3---5-3-3-3-3-------------------------------------------------

G|--------------------------------------------------------------------
D|---------2------------2--------------------------7-5-4--------------
A|-3-3-3-5---5-3-3--3-5---3----------2------5-5-5---------------------
E|-----------------------------3-3-3---5-3----------------------------

G|--------------------------------------------------------------------
D|--------------------------------------------------------------------
A|---------2----------------------------------------------------------
E|---3-3-3---5-3-3-3x-------------------------------------------------

ESTRIBILLO
G|--------------------------------------------------------------------
D|--------2-----------7-5-4--------7-5-4------------------------------ x4
A|--3-3-5---5-2---5-5--------5-5--5--------------2--------------------
E|----------------------------------------3-3-----5-3-----------------

G|--------------------------------------------------------------------
D|--------2---------7-5-4---------------------------------------------
A|--3-3-5---5---5-5-----------3---------------------------------------
E|--------------------------3---3/15----------------------------------

Hay cuanta gloria...
G|--------------------------------------------------------------------
D|--------------------------------------------------------------------
A|--3~--0-3-3-------5-5-----------------------------------------------
E|-------------3~-3------3~-0-3-3-------------------------------------

Cuanto necio...
G|---------------7x-9-7-----------------------------------------------
D|----------------------10-9-7-9--------------------------------------
A|---7-5-3x-----------------------------------------------------------
E|-----------5x-------------------------------------------------------

FINAL 2:55
G|--------------------------------------------------------------------
D|--------------------------------------------------------------------
A|---0x-5x----5x----3x------------------------------------------------
E|---------3x----3x----3x---33----------------------------------------
Este fichero es trabajo propio de su transcriptor y representa su interpretación personal de la canción. El material contenido en esta página es
para exclusivo uso privado, por lo que se prohibe su reproducción o retransmisión, así como su uso para fines comerciales.
© LaCuerda.net · Aviso Legal · Privacidad