Tablatura de Calle 13: Ojos color sol
Calle 13/silvio Rodriguez
Multi_viral [2014]
Cualquier falla indicarmela en mi mail mbellescudero92@gmail.com


Intro

e|--------9-----10-----9-------------9-----------9----------|
B|------7---7------7-----7---------7---7-------7---7--------|
G|----7-------7------7-----7-----7-------7---7-------7------|    x2
D|--0--------------------------0----------------------------|
A|-----------------------------------------0----------------|
E|----------------------------------------------------------|

e|--------9-----10------9----9------------------------------|
B|------7---7------7---------8------------------------------|
G|----7-------7------7-------9------------------------------|
D|--0-------------------------------------------------------|
A|----------------------------------------------------------|
E|----------------------------------------------------------|


Verso

e|----------------------------------------------------------|
B|-----------2-------------2--------------2-----------2-----|
G|--------2-------------2--------------2-----------2--------|
D|-----4-------------4--------------2-----------2-----------|
A|--5-------------5--------------0-----------0--------------|
E|----------------------------------------------------------|
                                                                     x3
e|----------------------------------------------------------|
B|-----------3------------3---------------------------------|
G|--------2------------2-----------------3-----------3------|
D|-----4------------4-----------------4-----------4---------|
A|--2------------2-----------------4-----------4------------|
E|------------------------------2-----------2---------------|

Hoy el sol se escondió
y no quiso salir
te vio despertar
y le dio miedo de morir.
Abriste los ojos y el sol guardo su pincel
porque tu pintas el paisaje mejor que él.
Cuando amanece, tu lindura,
cualquier constelación se pone insegura.
Tu belleza huele a mañana
y me da de comer durante toda la semana
tus ojos hacen magia, son magos,los abriste
y ahora se reflejan las montañas en los lagos,
la única verdad absoluta es que cuando naciste tu
a los arboles le nacieron frutas:
naranja dulce,
siembra de querubes;
como el sol tenia miedo se escondió en una nube.
Hoy el sol no hace falta, esta en receso
la vitamina D me la das tú con un beso.

Coro

Em La luna sale a caminar
Bm siguiendo tus pupilas.
Em La noche brilla original
Bm después que tú la miras.
Em Ya nadie sabe ser feliz
Bm a costa del despojo,
C Gracias a ti
A y a tus ojos Verso e|----------------------------------------------------------| B|-----------2-------------2--------------2-----------2-----| G|--------2-------------2--------------2-----------2--------| D|-----4-------------4--------------2-----------2-----------| A|--5-------------5--------------0-----------0--------------| E|----------------------------------------------------------| x2 e|----------------------------------------------------------| B|-----------3------------3---------------------------------| G|--------2------------2-----------------3-----------3------| D|-----4------------4-----------------4-----------4---------| A|--2------------2-----------------4-----------4------------| E|------------------------------2-----------2---------------| Eres un verso en riversa, un riverso. Despertaste y le diste vuelta mi universo. Ahora se llega a la cima bajando por la sierra, la Tierra ya no gira, tú giras por la Tierra. En las guerras se dan besos, ya no se pelean. Hoy, las gallinas mugen y las vacas cacarean. Las lombrices y los peces pescan los anzuelos, Se vuela por el mar y se navega por el cielo.
Em Crecen flores en la arena, cae lluvia en el desierto.
G Ahora los sueños son reales, porque se sueña despierto.
A Y ése sueño es seguro, y así se reproduce
Em y la inocencia por fin no se esconde de las luces.
Em La escasez de comida se vuelve deliciosa,
G porque tenemos la barriga llena de mariposas.
A La galaxia revela su comarca escondida
Em y en la Tierra parece que comienza la vida. Coro
Em La luna sale a caminar
Bm siguiendo tus pupilas.
Em La noche brilla original
Bm después que tú la miras.
Em Ya nadie sabe ser feliz
Bm a costa del despojo,
C Gracias a ti
A y a tus ojos
Em Bm En la academia militar enseñan medicina,
Em Bm y los banqueros ahora harán viviendas y cobijas
Em Ya nadie sabe ser feliz
Bm a costa del despojo,
C Gracias a ti
A y a tus ojos Outro e|--------9-----10-----9-------------9-----------9----------| B|------7---7------7-----7---------7---7-------7---7--------| G|----7-------7------7-----7-----7-------7---7-------7------| D|--0--------------------------0----------------------------| A|-----------------------------------------0----------------| E|----------------------------------------------------------| e|--------9-----10------9----9------------------------------| B|------7---7------7---------8------------------------------| G|----7-------7------7-------9------------------------------| D|--0-------------------------------------------------------| A|----------------------------------------------------------| E|----------------------------------------------------------|
Este fichero es trabajo propio de su transcriptor y representa su interpretación personal de la canción. El material contenido en esta página es
para exclusivo uso privado, por lo que se prohibe su reproducción o retransmisión, así como su uso para fines comerciales.


Otras canciones del Artista

© LaCuerda.net · Aviso Legal · Privacidad