Tablatura para Bajo de Café Tacuba: las Flores
Conexión · Inscripción
Letras y Acordes
Pantalla Completa
Imprimir
Versión Texto
Añadir Favorito
Otras Versiones

Mostrar Diagramas
Desfile Automático
Formato del Texto


las Flores(BAJ)

Café Tacuba

calidad:
tacb0316
AUTOR: E. Del Real
ALBUM: Re (1994)
Enviado por irwinalvarado2
Artista: Cafe Tacvba
Canción: Las Flores  (version en vivo - bajo eléctrico)

Tabbed by Irwin Alvarado

Nota: Esta versión de Las Flores es como Quique Rangel
la toca en vivo con el bajo eléctrico. Tiene muchas más
variaciones en los versos que con el contrabajo. En linea
pueden escuchar esta version buscando el performance de KEXP,
Soundcheck o de festivales como Coachella.



Tuning: EADG

Intro:

G|-|-------------------------|-------------------------|---------------------|
D|-|-------0-0---1-1---3-3---|-------0-0---------3-3---|-0-0---1-1----0--1-3-|
A|-|-1-1---------------------|-1-1---------3-3---------|------------3--------|
E|-|-------------------------|-------------------------|---------------------|


Primer Verso
"Ven y dime todas esas cosas..."

G|---------------------2--|-3---3------------------|
D|-------0---0-1---1-3----|-------0---0-------3----|
A|-1---1------------------|-------------3---3---0--|
E|------------------------|------------------------|

G|---------------------2--|------------------------|
D|-------0-0---1---1-3----|-0--------0-1-----------|
A|-1---1------------------|-----0h1------0-1/3-1/3-|
E|------------------------|------------------------|

G|---------------------2--|-3---3------------------|
D|-------0---0-1---1-3----|-------0---0-------3x---|
A|-1---1------------------|-------------3---3------|
E|------------------------|------------------------|

G|---------------------2--|-----------------------|
D|-------0---0-1---1-3----|-0--------0-1---0-1----|
A|-1---1------------------|-----0h1---------------|
E|------------------------|-----------------------|


Puente Uno:
Yo te escuchare...

G|------------------------|-----------------------|
D|-3-3---3-3---1-1---1-1--|-0-0---0-0---11--0-1-0-|
A|------------------------|-----------------------|
E|------------------------|-----------------------|

G|------------------------|-----------------------|
D|-3-3---333---1-1---111--|-0-0---000---1x--------|
A|------------------------|-----------------------|
E|------------------------|-----------------------|


Puente Dos:

G|--------------------------|
D|--------------------------|
A|-1--1/5-/5--3/6----/8--/8-|
E|--------------------------| X3

G|-------------------------|
D|---------------------5---|
A|-5--3/5-3/5---6-6--8---6-|
E|-------------------------|



Segundo Verso:
Déjame ver como es que...

G|-------------------0-2--|-3---3----------------|
D|-------0-0---1--1-3----3|------3333---3333330--|
A|-1---1------------------|------------3---------|
E|------------------------|----------------------|

G|------------------------|-------------7--8--10-8-7--|
D|-------0---0-1---1-3~---|-0-----8--10-------------10|
A|-1---1------------------|----3----------------------|
E|------------------------|---------------------------|

G|------------------------|---------------------------|
D|-8--8--0000--------3-3--|------0-0-0----------------|
A|------------3-3-3-------|-1--1-------3--------------|
E|------------------------|---------------1-1h3 1h3-1-|

G|------------------------|-----------------------------|
D|------0-0-0-1---1--1h3~-|-----------------------------|
A|-1--1-------------------|-5---3h5-3h5-3--6---5h6-5h6h8|
E|------------------------|-----------------------------|


Y que cada estrella..

G|------------------------|-------------------------|
D|-33----33----11----11---|-00----00----11----11----|
A|------------------------|-------------------------|
E|----1-----1-----1-----1-|----1-----1-----1-----1--|


Y asi regalarte...

G|------------------------|-------------------------0-2-|
D|-3--1--0-----1--0-------|----------0--------0-1-3-----|
A|----------3--------3--1-|-0--1--3-----0-1-3-----------|
E|------------------------|-----------------------------|

G|------------------------|-15-------------15---|
D|------------------------|------15-------------|
A|-1~----/-/-/-13---------|-----------13--------|
E|------------------------|---------------------|

G|-15--15-15-15-15-15---15--15-15-15-15-15-|-3-2-0-----------|
D|-----------------------------------------|-------3-1-0---3-|
A|-----------------------------------------|-------------3---|
E|-----------------------------------------|-----------------|


No dejes que amanezca..

G|-------------------------|-------------------------|
D|-------------------------|-------------------------|
A|-1-1---0-0---------------|-------------------------|
E|-------------4-4---3-3---|-2-2---1-1---0-0---1-1---|


Puente Final                        Nota Final

G|---------------------------|     G|----|
D|---------------------------|     D|----|
A|-1--1/5-1/5--3/6----/8--/8-|     A|-5--|
E|---------------------------| X4  E|----|
Este fichero es trabajo propio de su transcriptor y representa su interpretación personal de la canción. El material contenido en esta página es
para exclusivo uso privado, por lo que se prohibe su reproducción o retransmisión, así como su uso para fines comerciales.

© LaCuerda.net · Aviso Legal · Privacidad