Acordes de Guitarra » C »Café Quijano » Ante todo (Tab)

Ante todo
Café Quijano

Letras, Acordes y Tabs para Guitarra, Bajo y Ukulele

  • SOL.M  RE.M  DO-M  SOL.M  (repetir dos veces)
    
    SOL.M              RE.M             DO.M       SOL.M
    Ante todo trato de explicarte lo que quiero de ti.
                            RE.M     DO.M          SOL.M
    Ante todo quiero que tu seas alguien muy normal.
          RE.M               DO.M                   SOL.M
    Ante todo quiero que me trates como yo te trato a ti.
          RE.M          DO.M                     SOL.M
    Ante todo trato de explicarte lo que quiero de ti.
    
    MI.m                SOL.M    MI.m            SOL.M
    Sueña hasta que te duermas. Duerme y ya no soñaras,
          RE.M           DO.M        SI.m
    Solo sentiras que tu alma viene y va,
          RE.M           DO.M        SOL.M
    Solo sentirás que tu alma viene y va.
    
    Ante todo trato de explicarte lo que quiero de ti.
    Ante todo quiero que descubras lo dulce de la vida.
    
  •     SOL.M                   RE.M                  SOL.M        RE.M
    E:/------------------------------------------------3----------------
    A:/---------2-2----------------------0-2-3---2-0--------------------
    D:/--------------------------0----------------------------------0---
    G:/------0-------0-----------2-----------------------0----------2---
    B:/----0-----------0---0-----3-------------------------0---0----3---
    E:/--3---------------3---3---2--3-2----------------------3---3--2---
    
    
        DO.M  SOL.M          RE.M  DO.M  SOL.M              
    E:/--------3-------------------------3---------
    A:/--3-------------------------3---------------
    D:/----------------------0---------------------
    G:/--0-------0-----------2-----0-------0-------
    B:/--2---------0---0-----3-----2---------0-----
    E:/--0-----------3---3---2-----0-----------3---
    
    *********************************************************************
    
    Este punteo normalmente se toca con un bandolin pero se puede tocar 
    
  • E|---------------------------------------------------------
    A|---------------------------------------------------------
    D|-12-12-12---------------------------12-12-12----12~------
    G|----------12--------------14-12-14~----------12----------
    B|-------------12--12-12-12--------------------------------
    E|---------------------------------------------------------
                   SOL                RE              DO       
    
    E|---------------------------------------------------------
    A|---------------------------------------------------------
    D|-12-12-12----12~-12-12-12--------------------------------
    G|----------12--------------12-----------------------------
    B|-----------------------------12~-12-------------15----15-
    E|------------------------------------15-15-15-12----12----
                   SOL                    RE                   
    
    E|-------------------------------------------|
    A|-------------------------------------------|
    D|-------------------------------------------|
    G|------------------------------------14-12~-|
    
  • +
    ¡Colabora con nosotros!
    Envíanos tu versión de esta canción

Letra de Ante todo
Ante todo trato de explicarte lo que quiero de ti.
Ante todo quiero que tu seas alguien muy normal.
Ante todo quiero que me trates como yo te trato a ti.
Ante todo trato de explicarte lo que quiero de ti.
Sueña hasta que te duermas. Duerme y ya no soñaras,
Ante todo trato de explicarte lo que quiero de ti.
Ante todo quiero que descubras lo dulce de la vida.
Ante todo quiero que me juzgues por lo que ves en mi.
Ante todo trato de explicarte lo que quiero de ti.
(repetir los acordes de la primera estrofa en la segunda)
Esta trascripción va dedicada a todos esos “amigetes” de la
red que buscan canciones de los leoneses Café Quijano.
Este sin duda es uno de sus mejores boleros
(incluido en su primer álbum).




[Ante todo chords][Ante todo cifra]
© LaCuerda.net · aviso legal · privacidad · es · en · pt · contacto