Acordes de Guitarra » B »Bye Sami » Un amigo más (Tab)

Un amigo más
Bye Sami

Letras, Acordes y Tabs para Guitarra, Bajo y Ukulele

  • e|-----------------|
    b|-----------------|
    G|°-44-3-44-3-4-3-°|
    D|°-xx-x-xx-x-x-x-°|   x9
    A|--22-1-22-1-2-1--|
    E|-----------------|
    
    Guitarra 2: B5 F#5 D#5 G#5   X2
    
    Gutarra 1:
    e|-----------------------------------------------------------------------
    b|-----------------------------------------------------------------------
    G|--9-8--9-8-11-9-8-9----9-8---9-8-11-9-8-9----9-8---9-8-11-9-8-9--------
    D|-9----9------------------------------------11----11--------------------
    A|---------------------11----11------------------------------------------
    E|-----------------------------------------------------------------------
    Cont...
    ---------------------|
    ---------------------|
    --9-8---9-8-11-9-8-9-|
    
  • +
    ¡Colabora con nosotros!
    Envíanos tu versión de esta canción

Letra de Un amigo más
G|°-44-3-44-3-4-3-°|
D|°-xx-x-xx-x-x-x-°| x9
Gutarra 1:
Cont...
Guitarra 2: B5 G#5 C#5 F#5
Verso: x4
Guirarra 1:
Guitarra 2: B5 F#5 D#5 G#5
Pre-coro: x1
Guitarra 1 y 2:
Guitarra 1 y 2:
Verso:
Guitarra 1:
Cont...
Guitarra 2:
P.M............................
Cont...
-9-9-9-9-9-9-9-8-9-9-9-9-9-9-9-8-9-9-9-9-9-9-9-8-9-9-9-9-9-9-9--
-x-x-x-x-x-x-x-x-x-x-x-x-x-x-x-x-x-x-x-x-x-x-x-x-x-x-x-x-x x-x--
-7-7-7-7-7-7-7-6-7-7-7-7-7-7-7-6-7-7-7-7-7-7-7-6-7-7-7-7-7-7-7--
P.M..........................................................
Cont...
-11-11-11-9-9-9-8--|
Pre-coro: x1
Bridge:
Guitarra 1 y 2:
Guitarra 1:
Guitarra 2: pre-coro
Outro:
Guitarra 1:
Cont...
guitarra 2:
comentarios a: joselo_57@hotmail.com
Gracias

Video de Un amigo más
[]




[Un amigo más chords][Un amigo más cifra]
© LaCuerda.net · aviso legal · privacidad · es · en · pt · contacto