Acordes de Guitarra » B »Burning » Qué hace una chica como tú (Tab)

Qué hace una chica como tú
Burning

Letras, Acordes y Tabs para Guitarra, Bajo y Ukulele

  • F                                             C
    ¿Qué hace una chica como tú en un sitio como este?
      F                                   C
    ¿Qué clase de aventura has venido a buscar?
       F                                        C
    Los años te delatan, nena, estás fuera de sitio.
    F                            C
    Vas de caza ¿a quién vas a cazar?
    G                         Am
    No utilices tus juegos conmigo.
     C          F                C
    Mujer fatal, siempre con problemas.
    C          F                 C       G
    Mujer fatal, siempre con problemas.
    F                                               C
    ¿Qué tienes en los ojos, nena, o es que vas a llorar?
    F                                                 C
    Ya sé que alguien pisó tu orgullo en un oscuro portal
      G                                    Am
    No intentes atraparme, he aprendido a volar.
    
  • C C [F F C C] x 2
    
    VERSO:
         F                     F                 C     C
    ¿Qué hace una chica como tú en un sitio como este?
         F                F                C    C
    ¿Qué clase de aventura has venido a buscar?
        F                  F                  C    C
    Los años te delatan, nena, estás fuera de sitio.
    F          F                 C    C
    Vas de caza ¿a quién vas atrapar?
    G          G             Am    Am
    No utilices tus juegos conmigo.
    
    ESTRIBILLO:
    C       F       F                   (x2)
    Mujer fatal, siempre con problemas. (x2)
    
    INSTRUMENTAL:
    C G C C | F C F C
    
  • Intro: F F9 C F F9 C
        F                   F9                     C     C11/G C
    Qué hace una chica como tú    en un sitio como este?
        F                F9                    C     C11/G C
    Qué clase de aventura      has venido a buscar?
        F                F9                   C     C11/G C F
    Los años te delatan, nena, estás fuera de sitio.
                F9                   C     C11/G C
    Vas de caza,   a quién vas a atrapar?
    
    G                         Am (PARAR) C
    No utilices tus juegos conmigo.
            F    F9                    C
    Mujer fatal, siempre con problemas
            F    F9                    C G(PARAR)
    Mujer fatal, siempre con problemas
    Solo: C F C F C
    
        F                   F9                      C   C11/G C
    Qué tienes en los ojos, nena, o es que vas a llorar.
    
  • SOLO GUITARRA
    
    |----------------------------------------|
    |----------------------------------------|
    |-------7--5--------7p5—7^--7p5----------|
    |-5--7-----------------------------------|
    |----------------------------------------|
    |----------------------------------------|
    
    |------------------------------------------------------|
    |-------8--10--8------6-5-6-8---5p3---3-3h5----5p3-----|
    |-7p5-s7----------------------------5----------------5-|
    |------------------------------------------------------|
    |------------------------------------------------------|
    |------------------------------------------------------|
    
    |--------7----------------------------------|
    |------8---8----------------10--8-----------|
    |---s9---------9-7-5------9--------9--7--5--|
    |-------------------------------------------|
    |-------------------------------------------|
    |-------------------------------------------|
    
    |-------5--------------------------------|
    |-----5----8-5--5-5---5-6--—6-5---5--3---|
    |--7^-------------
  • +
    ¡Colabora con nosotros!
    Envíanos tu versión de esta canción
  • Tutorial
    Qué hace una chica como tú en un sitio como este - Acordes Guitarra Fácil
    3:38

Letra de Qué hace una chica como tú
¿Qué hace una chica como tú en un sitio como este?
¿Qué clase de aventura has venido a buscar?
Los años te delatan, nena, estás fuera de sitio.
Vas de caza ¿a quién vas a cazar?
No utilices tus juegos conmigo.
Mujer fatal, siempre con problemas.
Mujer fatal, siempre con problemas.
¿Qué tienes en los ojos, nena, o es que vas a llorar?
Ya sé que alguien pisó tu orgullo en un oscuro portal
No intentes atraparme, he aprendido a volar.
Mujer fatal, siempre con problemas.
Mujer fatal, siempre con problemas.
¿Qué hace una chica como tú en un sitio como este?
¿Qué hace una chica como tú en un sitio como este?
¿Qué hace una chica como tú en un sitio como este?
Mujer fatal, siempre con problemas.
Mujer fatal, siempre con problemas.
Mujer fatal, este no es tu sitio.
Mujer fatal, siempre con problemas.




[Qué hace una chica como tú chords][Qué hace una chica como tú cifra]
© LaCuerda.net · aviso legal · privacidad · es · en · pt · contacto