Acordes de Guitarra » B »Buenavista Social Club » El cuarto de tula (Tab)

El cuarto de tula
Buenavista Social Club

Letras, Acordes y Tabs para Guitarra, Bajo y Ukulele

  • intro: Am / E / E / Am
    
    
     Am     E     E     Am     Am     E    E     Am 
    -------------------------------------------------
    -------------------------------------------------
    --2-2-1-4-----4-4-2-5------2-2-1-4-----4-4-2-5---
    -------------------------------------------------
    -------------------------------------------------
    -------------------------------------------------
    
      Am      E          E       Am
    -------------------------------------------------
    -------------------------------------------------
    --5-4-2--------------4-2-1-----------------------
    --------5-3-2-0-------------3-2-0----------------
    ------------------------------------3------------
    -------------------------------------------------
    
    Am      E          E       Am
    
  • [E / Am]
    
     [Am / Dm / E / Am]
    
    
     Am               G               F           E
    En el barrio la cachimba se ha formado la corredera
    
     Am               G               F           E
    En el barrio la cachimba se ha formado la corredera
    
     Am                G                 F           E
    Allá fueron los bomberos con sus campanas sus sirenas
    
    Am                G                 F           E
    Allí fueron los bomberos con sus campanas sus sirenas
    
    G   C    G   C     E   Am   E   Am
    Ay mama que paso, ay mama que paso
    
    
  • +
    ¡Colabora con nosotros!
    Envíanos tu versión de esta canción

Letra de El cuarto de tula
En el barrio la cachimba se ha formado la corredera
En el barrio la cachimba se ha formado la corredera
Alli fueron los bomberos con sus campanas sus sirenas
Alli fueron los bomberos con sus campanas sus sirenas
Ay mama que paso, ay mama que paso
El cuarto de Tula, se cogio candela
se quedo dormida y no, apago la vela




[El cuarto de tula chords][El cuarto de tula cifra]
© LaCuerda.net · aviso legal · privacidad · es · en · pt · contacto