Acordes de Guitarra » B »Bryan Visbal » Volverte a ver (Tab)

Volverte a ver
Bryan Visbal

Letras, Acordes y Tabs para Guitarra, Bajo y Ukulele

  • e|--------------------------------------------------------------------|
    B|--------------------------------------------------------------------|
    G|--------------------------------------------------------------------|
    D|--------------------------------------------------------------------|
    A|----------------------------------------7-6----7-6----7-6-----7-6---|
    E|--0-0-6-7-0-0-6-7-0-0-6-7-0-0-6-7---7-7----7-7----7-7-----7-7-------|
    
    Segunda guitarra
    e|--------------------------------------------------------------------|
    B|--9----------------------9-7----------------------------------------|
    G|--9-----8-8-8-8-9-8---------9-8-9-8-9-------------------------------|
    D|--9------------------------------------9----------------------------|
    A|--7-----------------------------------------------------------------|
    E|--------------------------------------------------------------------|
    
    
    Se pueden tocar notas quintas, es decir,
    Solamente con los bajos para que suene mas rockera.
    Correcciones, comentarios a khriz521@hotmail.com
    
    
  • Intro (E-Bm)(x2)
    e|--------------------------------------------------------------------|
    B|--------------------------------------------------------------------|
    G|--------------------------------------------------------------------|
    D|--------------------------------------------------------------------|
    A|----------------------------------------7-6----7-6----7-6-----7-6---|
    E|--0-0-6-7-0-0-6-7-0-0-6-7-0-0-6-7---7-7----7-7----7-7-----7-7-------|
    
    Se pueden tocar notas quintas, es decir,
    Solamente con los bajos para que suene mas rockera.
    Correcciones, comentarios a khriz521@hotmail.com
    
    I
    E                              Bm
    Sonreías y en tus ojos veía poesía divina
          E                                  Bm
    Tus miradas como flechas de cupido envenenadas me tirabas
           C#m        F#m
    Y tu cuerpo y el olor de tu piel
          C#m                                    F#m
    
  • Intro (E-B)(x2)
    e|--------------------------------------------------------------------|
    B|--------------------------------------------------------------------|
    G|--------------------------------------------------------------------|
    D|--------------------------------------------------------------------|
    A|----------------------------------------7-6----7-6----7-6-----7-6---|
    E|--0-0-6-7-0-0-6-7-0-0-6-7-0-0-6-7---7-7----7-7----7-7-----7-7-------|
    
    
    PRIMER VERSO:
    
    E                              B
    Sonreías y en tus ojos veía poesía divina
          E                                  B
    Tus miradas como flechas de cupido envenenadas me tirabas
           C#m        F#m
    Y tu cuerpo y el olor de tu piel
          C#m                                    F#m
    Todo fue tan real no quise despertar sin tus besos
    
    
  • +
    ¡Colabora con nosotros!
    Envíanos tu versión de esta canción

Letra de Volverte a ver
Se pueden tocar notas quintas, es decir,
Solamente con los bajos para que suene mas rockera.
Correcciones, comentarios a khriz521@hotmail.com
I
Sonreías y en tus ojos veía poesía divina
Tus miradas como flechas de cupido envenenadas me tirabas
Y tu cuerpo y el olor de tu piel
Todo fue tan real no quise despertar sin tus besos
Volverte a ver de nuevo tal vez
Mataría al demente que habita en mi mente pero fue un sueño (x2)
(La segunda estrofa va igual)
II
Las caricias fueron tan reales que hasta el sexo fue perfecto
Los colores los sonidos del día eran secretos, directos
Y tu cuerpo y el olor de tu piel
Todo fue tan real no quise despertar sin tus besos
Volverte a ver de nuevo tal vez
Mataría al demente que habita en mi mente pero fue un sueño (x2)
Entre las cuatro paredes de mi mundo imperfecto
No encuentro como tener solo en sueños en sueños
(Se repite intro o la misma secuencia de notas (E-Bm))
By Khriz521 desde Killa saludos a la tierra linda Momil, Córdoba.




[Volverte a ver chords][Volverte a ver cifra]
© LaCuerda.net · aviso legal · privacidad · es · en · pt · contacto
DINAMICO