Acordes de Guitarra » B »Bruno Arias » En tu adiós (Tab)

En tu adiós
Bruno Arias

Letras, Acordes y Tabs para Guitarra, Bajo y Ukulele

  •    Cmaj/G   Gsus4(add9)   Bm    Bm7  Cmaj/G   Bsus2(maj7)  Gsus4(add9)   Bm
    -----3----------5---------2------5-----------------7--------
    -----5----------3---------3------3-----------------3--------
    -----5----------5---------4------2-----------------5--------
    -----5----------5---------4------4-----------------5--------
    -----3----------3---------2------2-----------------3--------
    -----3----------3---------2------2-----------------3--------
    
    
    
    
           Cmaj/G   Bm                 Gm
    --3---3-3-3-3-5-2---2-2-2-2-5-3---3-3-7-5-2--------------3--
    --5---5-5-5-5-7-3---3-3-3-3-7-5---5-5-7-7-3------------0-5--
    ---------------------------------------------------0-2-4----
    -----------------------------------------------2-4----------
    ------------------------------------------------------------
    ------------------------------------------------------------
    
    
    
  • +
    ¡Colabora con nosotros!
    Envíanos tu versión de esta canción

Letra de En tu adiós
queda el perfume de tu piel flotando al aire |||o||
y por tu ausencia muero, entre cenizas quedo ||||||
esperando tu regreso, esperando tu regreso.
En soledad juega tu sombra a mis espaldas
tan infinita como el tiempo de las almas
y te imagino tierra, en mis sueños de estrellas
ya cansado de esperarte, ya cansado de esperarte.
Cuelgo tu cuerpo del sol,
y en el vientre en fuego
de la tarde te iras
perdiendote en la luz,
y renaceras
cada amanecer...
(misma secuencia de la intro)
otra vez, como ayer
En mi adios, cuando me marcho tras de un sueño
y me enamoro en el vuelo de otro cielos
tu imágen vuelve a verme, a mi camino siempre
y entre mis ojos se pierde, y entre mis ojos se pierde
Al regresar busco el perfil de la mañana
con tu cabello adormeciendose en mi zamba
y a tus brazos regreso con la noche en los huesos
caminando la distancia, caminando la distancia




[En tu adiós chords][En tu adiós cifra]
© LaCuerda.net · aviso legal · privacidad · es · en · pt · contacto
DINAMICO