Acordes de Guitarra » B »Bryndis » Por muchas razones te quiero (Tab)

Por muchas razones te quiero
Bryndis

Letras, Acordes y Tabs para Guitarra, Bajo y Ukulele

  • RE
    Por que tu me enseñaste a vivir de esta
          MIm                LA7
    forma te quiero, por que antes de ti no
                      RE               SIm
    senti un amor tan sinsero, por que nadie
                                     MIm
    me dio la ternura que atu lado encuentro
           SOL                LA7
    es por eso y por muchas razones que tanto
          RE LA7
    te quiero.
    
    
    
            RE
    Por que nadie en la vida me dio tanto amor
          MIm             SOL
    yo te quiero, por que solo a tu lado yo ,
    LA7                  RE             LA
    
  •   (G)     Cm F (T)     Bb   (G)          (T)
    e|--6-5-----|----8-10-11-|--8-6-----|--------8-10-|
    B|------6-8-|--11--------|------8-6-|--10-11------|
    G|----------|------------|----------|-------------|
    D|----------|------------|----------|-------------|
    A|----------|------------|----------|-------------|
    E|----------|------------|----------|-------------|
        (G)   Cm       F     (G)    Bb    (T)
    e|--6-5----------6-5-|--6-5-------|---6---6---|
    B|------6-8--8-8-----|------8-6---|--6--6---6-|
    G|-------------------|----o-----7-|-----------|
    D|-------------------|----t-------|-----------| X2
    A|-------------------|----s-------|-----------|
    E|-------------------|----e-------|-----------|
                             s
    e|-8--6-5-6-|esta parte e   en la segunde ves SE CAMBIA
    
    Bb
    PORQUE TU ME ENSEÑASTE
                                 Cm
    
  • +
    ¡Colabora con nosotros!
    Envíanos tu versión de esta canción

Letra de Por muchas razones te quiero
Por que tu me enseñaste a vivir de esta
forma te quiero, por que antes de ti no
senti un amor tan sinsero, por que nadie
me dio la ternura que atu lado encuentro
es por eso y por muchas razones que tanto
te quiero.
Por que nadie en la vida me dio tanto amor
yo te quiero, por que solo a tu lado yo ,
siento que a nada le temo , por que contigo
aprendi que en la vida es mejor a tu lado
yo siento ternura y amor, es por eso y por
muchas razones que tanto te quiero.
PUES AHI ESTA ESTA ROLA ASI DE SENCILLA, MUY FACIL DE
SACAR DEVEN DE CHECAR QUE LOS TONOS Y EL ORDEN DE LOS
ACORDES SON MUY DIFERENTES YA QUE SI LA PUEDEN SACAR
CON ESTOS ACORDES SE DARAN CUENTA QUE LE DA UN ESTILO
TODAVIA MAS ROMANTICON Y MAS BONITO BUENO CUIDENSE
POR SI DUDAS O COMENTARIOS AGREGENME OK......LGN....




[Por muchas razones te quiero chords][Por muchas razones te quiero cifra]
© LaCuerda.net · aviso legal · privacidad · es · en · pt · contacto