Acordes de Guitarra » B »Bryndis » Cuando caiga una lágrima (Tab)

Cuando caiga una lágrima
Bryndis

Letras, Acordes y Tabs para Guitarra, Bajo y Ukulele

  • G D G G G C G G C D G G D D G
    
    1-----------7-7---------------7-7-------------------
    2------7-8------8-7-10-10-7-8-----------7/12-12-----
    3-7-9-----------------------------7-9---------------
    
    1-10-10-----8-12-12-8-----10-10---------------------
    2-------12-------------12---------12-12-------------
    3---------------------------------------------------
    
    1-------------------14-14--------12-12-------10-10-
    2------10-12/15-15--------15-14--------14-12--------
    3--12-----------------------------------------------
    
    1---------------------------------------------------
    2-12-12/13-12-12/13-12-12---10-10-8-8---------------
    3---------------------------------------------------
    
    1-----------------10--------------------------------
    2------------8-12----12-8---------------------------
    
  • +
    ¡Colabora con nosotros!
    Envíanos tu versión de esta canción

Letra de Cuando caiga una lágrima
Cuando te sientas sola
cuando no tengas a nadie
a quien amar
entonces tu de mi te acordaras
Cuando caiga de tus pupilas
una lagrima
y que sientas que estas sola
y que llores
Cuando sientas la nostalgia del ayer
y tu llanto ya no puedas contener
Entonces sabras que un amor
se debe cuidar
entonces sabras que nunca hallaras
otro amor igual
Entonces sabras que un amor
se debe cuidar
entonces sabras que nunca hallaras
otro amor igual
Cuando caiga de tus pupilas
una lagrima
y que sientas que estas sola
y que llores
Cuando sientas la nostalgia del ayer
y tu llanto ya no puedas contener
Cuando caiga de tus pupilas
una lagrima
y que sientas que estas sola
y que llores
Cuando sientas la nostalgia del ayer
y tu llanto ya no puedas contener




[Cuando caiga una lágrima chords][Cuando caiga una lágrima cifra]
© LaCuerda.net · aviso legal · privacidad · es · en · pt · contacto
DINAMICO