Acordes de Guitarra » B »Botellita de Jerez » San Jorge y el Dragon (Tab)

San Jorge y el Dragon
Botellita de Jerez

Letras, Notas, Punteos, Tablaturas y Acordes de Guitarra (Tabs & Chords)

  • Tablatura
    Intro y riff principal :
    
    e -----|------------------------||
    B -----|------------------------||
    G -----|------------------------||
    D --5--|----------2-------------||
    A --5--|----2-3-5---3-1-0-1-0---||
    E --3--|--3---------------------||
    
    Verso :
    
    e ----------------------------------------------------|| 
    B ----------------------------------------------------||
    G ----------------------------------------------------||
    D --5-5-5-5-5-5---7-8-9-10------7-8-9-10--------------||
    A --5-5-5-5-5-5---7-8-9-10------7-8-9-10--10-10-10-10-||
    E --3-3-3-3-3-3---5-6-7-8-------5-6-7-8---8--8--8--8--||
    
    Coro :
    
    e --------------------------------------------||
    B --------------------------------------------||
    G --7--7--7--5--0--5--5--7--7--7--5--0--5--5--||
    D --7--7--7--5--0--5--5--7--7--7--5--0--5--5--||  
    A --5--5--5--3--0--3--3--5--5--5--3--0--3--3--||
    E --------------------------------------------||
    
    
    requinto :
    
    e ------------------------------|---------|
    B ---------------
  • +
    ¡Colabora con nosotros!
    Envíanos tu versión de esta canción





© LaCuerda.net · Aviso Legal · Privacidad