Acordes de Guitarra » B »Bohemia Suburbana » Aire (Tab)

Aire
Bohemia Suburbana

Letras, Acordes y Tabs para Guitarra, Bajo y Ukulele

  •      G                    D
    Hoy no quiero platicar contigo;
         Am               Cm
    solamente verte actuar conmigo.
         G                D
    sin masticar asi un fruto prohibido,
         Am         Cm
    que esta muy podrido.
    
         G            Dm        Am
    talves podrias decirme tu...
         G                Dm       Am
    como podria un ser humano vivir,
                   G       Dm     Am
    en completa soledad? soledad.
     G                   Dm      Am
    sabes quien podria decirme...
     G               Dm             Am
    como podria yo existir si ya no esta
          G                          Dm
    
  •    |____|<--- *** 
    
    Solo
    
    e|---------------------------------------------------------|
    B|---------8~---------8~---------8~---------8~---------8~--|
    G|--4h5b~------4h5b~------4h5b~------4h5b~------4h5b~------|
    D|---------------------------------------------------------|
    A|---------------------------------------------------------|
    E|---------------------------------------------------------|
       |____|<--- *** 
    
    e|-------------------------------------------------------------------------|
    B|--------8~---8--8--8br~--------------------------8~--8--8--8b~r~---------|
    G|-----7-------------------7--0--------------0--7-------------------7--0~--|
    D|--5------------------------------5-5-5-5-5-------------------------------|
    A|-------------------------------------------------------------------------|
    E|-------------------------------------------------------------------------|
    
    
    
  • G                    D
    Hoy no quiero platicar contigo;
         Am               Cm
    solamente verte actuar conmigo.
         G                D
    sin masticar asi un fruto prohibido,
         Am         Cm
    que esta muy podrido.
         G            Dm   Am
    talves podrias decirme tu...
         G                Dm         Am
    como podria un ser humano vivir,
                   G         Dm   Am
    en completa soledad? soledad.
     G                   Dm     Am
    sabes quien podria decirme...
     G               Dm              Am          G
    como podria yo existir si ya no esta mi libertad?!!!!
    
    Aqui les va el solo:
    
  • +
    ¡Colabora con nosotros!
    Envíanos tu versión de esta canción

Letra de Aire
Hoy no quiero platicar contigo;
solamente verte actuar conmigo.
sin masticar asi un fruto prohibido,
que esta muy podrido.
talves podrias decirme tu...
como podria un ser humano vivir,
en completa soledad? soledad.
sabes quien podria decirme...
como podria yo existir si ya no esta
mi libertad, mi libertad, mi libertad,
mi libertad?
eeeeeeeeeeeeeeeeeeeeeehhhhhhhh
buscando algo que me lleve,
si el agua cae es porque llueve.
quiero seguir buscando,
quiero seguir llorando y no sentirme mal.
Aire, me falta el aire;
miedo, me sobra el miedo para respirar,
para poder luchar. Y para respirar..para poder luchar




[Aire chords][Aire cifra]
© LaCuerda.net · aviso legal · privacidad · es · en · pt · contacto
DINAMICO