Acordes de Guitarra » B »Bloque Depresivo » Lo Dudo (Tab)
  • Letra y Acordes
    F#m  Bm7  C#7
    
    
    e|--------------------------------------------------------------------------|
    B|------10-9-10--------------10-9-10--------------10-9-12-12-9-10-----------|
    G|----------------------------------------------------------------11-10-----|
    D|-11--------------11-11-11-------------11-11-11----------------------------|
    
    
    e|------9--7-9---------------9--7-9---------------9--7-10-10-8--7-5-4-------|
    B|------10-9-10--------------10-9-10--------------10-9-12-12-10-9-7-6-------|
    G|--------------------------------------------------------------------------|
    D|-11--------------11-11-11-------------11-11-11----------------------------|
    A|--------------------------------------------------------------------------|
    
    
    e|---------------|
    B|---------------|
    G|-6-7-6---------|
    D|-------9-7-6---|
    
  • +
    ¡Colabora con nosotros!
    Envíanos tu versión de esta canción

Letra de Lo Dudo
ANDA Y VE,
TE ESTA ESPERANDO ANDA Y VE
NO LO HAGAS POR MI
QUE AL FIN Y AL CABO SOMOS SOLO AMIGOS
ANDA Y VE
TE VEO NERVIOSA ANDA Y VE
Y QUE SIENTAS CON EL
LO QUE EN SU DIA TU SENTIAS CONMIGO
PERO LO DUDO
CONMIGO TE MECIAS EN EL AIRE
VOLABAS EN CABALLO BLANCO EL MUNDO
Y AQUELLAS COSAS NO PODRAN VOLVER
Y ES QUE LO DUDO
PORQUE HASTA A VECES ME HAS LLORADO POR UN BESO
LLORANDO DE ALEGRIA Y NO DE MIEDO
Y DUDO QUE TE PASE IGUAL CON EL,
IGUAL CON EL



© LaCuerda.net · aviso legal · privacidad · contacto
DINAMICO